ISO-10303-21;
HEADER;
FILE_DESCRIPTION (( 'STEP AP203' ),
    '1' );
FILE_NAME ('53203.step',
    '2021-12-03T14:55:50',
    ( '' ),
    ( '' ),
    'SwSTEP 2.0',
    'SolidWorks 2019',
    '' );
FILE_SCHEMA (( 'CONFIG_CONTROL_DESIGN' ));
ENDSEC;

DATA;
#1 = ORIENTED_EDGE ( 'NONE', *, *, #267, .F. ) ;
#2 = LOCAL_TIME ( 15, 55, 50.00000000000000000, #289 ) ;
#3 = EDGE_LOOP ( 'NONE', ( #181 ) ) ;
#4 = FACE_OUTER_BOUND ( 'NONE', #162, .T. ) ;
#5 = DIRECTION ( 'NONE',  ( 3.491481338843133355E-15, -1.224646799147353207E-16, 1.000000000000000000 ) ) ;
#6 = DIRECTION ( 'NONE',  ( -3.491481338843133355E-15, 1.224646799147353207E-16, -1.000000000000000000 ) ) ;
#7 = PERSON_AND_ORGANIZATION ( #86, #282 ) ;
#8 = DIRECTION ( 'NONE',  ( 1.000000000000000000, 0.0000000000000000000, -3.491481338843133355E-15 ) ) ;
#9 = CARTESIAN_POINT ( 'NONE',  ( -8.551662891793915461E-31, -1.000000000000000000, -2.449293598294706414E-16 ) ) ;
#10 = PERSON_AND_ORGANIZATION ( #86, #282 ) ;
#11 = APPROVAL ( #85, 'UNSPECIFIED' ) ;
#12 = APPLICATION_CONTEXT ( 'configuration controlled 3d designs of mechanical parts and assemblies' ) ;
#13 = ORIENTED_EDGE ( 'NONE', *, *, #38, .F. ) ;
#14 = ADVANCED_BREP_SHAPE_REPRESENTATION ( '53203', ( #132, #133, #185 ), #200 ) ;
#15 = EDGE_LOOP ( 'NONE', ( #276 ) ) ;
#16 = VERTEX_POINT ( 'NONE', #220 ) ;
#17 = EDGE_CURVE ( 'NONE', #175, #175, #46, .T. ) ;
#18 = CIRCLE ( 'NONE', #205, 0.9126980762706287109 ) ;
#19 = DIRECTION ( 'NONE',  ( -3.491481338843133355E-15, 1.224646799147353207E-16, -1.000000000000000000 ) ) ;
#20 = CC_DESIGN_APPROVAL ( #11, ( #97 ) ) ;
#21 =( NAMED_UNIT ( * ) SI_UNIT ( $, .STERADIAN. ) SOLID_ANGLE_UNIT ( ) );
#22 = EDGE_LOOP ( 'NONE', ( #114, #227, #248, #225 ) ) ;
#23 = CARTESIAN_POINT ( 'NONE',  ( 9.998294395168295786E-14, -3.506929592249467289E-15, 28.63625328291494654 ) ) ;
#24 = DIRECTION ( 'NONE',  ( -3.491481338843133355E-15, 1.224646799147353207E-16, -1.000000000000000000 ) ) ;
#25 = CYLINDRICAL_SURFACE ( 'NONE', #136, 0.9126980762706287109 ) ;
#26 = CARTESIAN_POINT ( 'NONE',  ( 0.0000000000000000000, 0.0000000000000000000, 0.0000000000000000000 ) ) ;
#27 = ADVANCED_FACE ( 'NONE', ( #65 ), #262, .T. ) ;
#28 = DIRECTION ( 'NONE',  ( 4.275831445896958607E-31, 1.000000000000000000, 1.224646799147353207E-16 ) ) ;
#29 = DIRECTION ( 'NONE',  ( 3.491481338843133355E-15, -1.224646799147353207E-16, 1.000000000000000000 ) ) ;
#30 = PERSON_AND_ORGANIZATION ( #86, #282 ) ;
#31 = VERTEX_POINT ( 'NONE', #131 ) ;
#32 = APPROVAL_DATE_TIME ( #35, #298 ) ;
#33 = CIRCLE ( 'NONE', #167, 1.000000000000000000 ) ;
#34 = APPROVAL_PERSON_ORGANIZATION ( #94, #54, #165 ) ;
#35 = DATE_AND_TIME ( #265, #155 ) ;
#36 = APPLICATION_PROTOCOL_DEFINITION ( 'international standard', 'config_control_design', 1994, #12 ) ;
#37 = EDGE_LOOP ( 'NONE', ( #140, #296, #89, #251 ) ) ;
#38 = EDGE_CURVE ( 'NONE', #156, #156, #91, .T. ) ;
#39 =( LENGTH_UNIT ( ) NAMED_UNIT ( * ) SI_UNIT ( .MILLI., .METRE. ) );
#40 = EDGE_LOOP ( 'NONE', ( #233 ) ) ;
#41 = AXIS2_PLACEMENT_3D ( 'NONE', #100, #5, #127 ) ;
#42 = ORIENTED_EDGE ( 'NONE', *, *, #17, .F. ) ;
#43 = DIRECTION ( 'NONE',  ( -3.491481338843133355E-15, 1.224646799147353207E-16, -1.000000000000000000 ) ) ;
#44 = DIRECTION ( 'NONE',  ( 4.275831445896958607E-31, 1.000000000000000000, 1.224646799147353207E-16 ) ) ;
#45 = DIRECTION ( 'NONE',  ( 0.0000000000000000000, 1.000000000000000000, 0.0000000000000000000 ) ) ;
#46 = CIRCLE ( 'NONE', #221, 2.000000000000000888 ) ;
#47 = PLANE ( 'NONE',  #163 ) ;
#48 = EDGE_CURVE ( 'NONE', #274, #182, #72, .T. ) ;
#49 = CLOSED_SHELL ( 'NONE', ( #244, #226, #288, #203, #119, #87, #144 ) ) ;
#50 = DIRECTION ( 'NONE',  ( -3.491481338843133355E-15, 1.224646799147353207E-16, -1.000000000000000000 ) ) ;
#51 = PERSON_AND_ORGANIZATION_ROLE ( 'creator' ) ;
#52 = CARTESIAN_POINT ( 'NONE',  ( 3.491481338843133355E-14, -1.301042606982605321E-15, 10.00000000000000000 ) ) ;
#53 = LOCAL_TIME ( 15, 55, 50.00000000000000000, #135 ) ;
#54 = APPROVAL ( #297, 'UNSPECIFIED' ) ;
#55 = CARTESIAN_POINT ( 'NONE',  ( 1.103308103074430140E-13, 1.999999999999997113, 31.60000000000000142 ) ) ;
#56 = FACE_OUTER_BOUND ( 'NONE', #171, .T. ) ;
#57 = DATE_AND_TIME ( #222, #102 ) ;
#58 = PERSON_AND_ORGANIZATION_ROLE ( 'classification_officer' ) ;
#59 = AXIS2_PLACEMENT_3D ( 'NONE', #66, #19, #299 ) ;
#60 = CC_DESIGN_DATE_AND_TIME_ASSIGNMENT ( #57, #159, ( #279 ) ) ;
#61 = VERTEX_POINT ( 'NONE', #280 ) ;
#62 = ADVANCED_FACE ( 'NONE', ( #69 ), #207, .T. ) ;
#63 = ORIENTED_EDGE ( 'NONE', *, *, #48, .T. ) ;
#64 = VERTEX_POINT ( 'NONE', #84 ) ;
#65 = FACE_OUTER_BOUND ( 'NONE', #22, .T. ) ;
#66 = CARTESIAN_POINT ( 'NONE',  ( 0.0000000000000000000, 0.0000000000000000000, 0.0000000000000000000 ) ) ;
#67 = COORDINATED_UNIVERSAL_TIME_OFFSET ( 1, 0, .AHEAD. ) ;
#68 = AXIS2_PLACEMENT_3D ( 'NONE', #164, #142, #259 ) ;
#69 = FACE_OUTER_BOUND ( 'NONE', #93, .T. ) ;
#70 = PERSON_AND_ORGANIZATION_ROLE ( 'creator' ) ;
#71 = CC_DESIGN_PERSON_AND_ORGANIZATION_ASSIGNMENT ( #7, #51, ( #249 ) ) ;
#72 = LINE ( 'NONE', #278, #134 ) ;
#73 = EDGE_LOOP ( 'NONE', ( #42 ) ) ;
#74 = CARTESIAN_POINT ( 'NONE',  ( 8.728703347107833388E-15, 6.844139342517663098E-33, 2.500000000000000000 ) ) ;
#75 = EDGE_CURVE ( 'NONE', #204, #274, #283, .T. ) ;
#76 = AXIS2_PLACEMENT_3D ( 'NONE', #82, #176, #150 ) ;
#77 = CARTESIAN_POINT ( 'NONE',  ( 0.0000000000000000000, 1.000000000000000000, 0.0000000000000000000 ) ) ;
#78 = DATE_TIME_ROLE ( 'classification_date' ) ;
#79 = LINE ( 'NONE', #194, #268 ) ;
#80 = DATE_AND_TIME ( #81, #2 ) ;
#81 = CALENDAR_DATE ( 2021, 3, 12 ) ;
#82 = CARTESIAN_POINT ( 'NONE',  ( 3.666055405785290654E-14, -1.285879139104721028E-15, 10.50000000000000178 ) ) ;
#83 = CALENDAR_DATE ( 2021, 3, 12 ) ;
#84 = CARTESIAN_POINT ( 'NONE',  ( 1.117274028429802674E-13, 1.599999999999996980, 32.00000000000000000 ) ) ;
#85 = APPROVAL_STATUS ( 'not_yet_approved' ) ;
#86 = PERSON ( 'UNSPECIFIED', 'UNSPECIFIED', 'UNSPECIFIED', ('UNSPECIFIED'), ('UNSPECIFIED'), ('UNSPECIFIED') ) ;
#87 = ADVANCED_FACE ( 'NONE', ( #212, #229 ), #223, .T. ) ;
#88 = AXIS2_PLACEMENT_3D ( 'NONE', #258, #24, #92 ) ;
#89 = ORIENTED_EDGE ( 'NONE', *, *, #292, .F. ) ;
#90 = EDGE_LOOP ( 'NONE', ( #232 ) ) ;
#91 = CIRCLE ( 'NONE', #88, 0.9126980762706287109 ) ;
#92 = DIRECTION ( 'NONE',  ( 0.0000000000000000000, 1.000000000000000000, 0.0000000000000000000 ) ) ;
#93 = EDGE_LOOP ( 'NONE', ( #111, #63 ) ) ;
#94 = PERSON_AND_ORGANIZATION ( #86, #282 ) ;
#95 = CARTESIAN_POINT ( 'NONE',  ( -4.275831445896957731E-31, 1.499759782661857608E-32, -1.224646799147353207E-16 ) ) ;
#96 = AXIS2_PLACEMENT_3D ( 'NONE', #285, #29, #264 ) ;
#97 = SECURITY_CLASSIFICATION ( '', '', #109 ) ;
#98 = DIRECTION ( 'NONE',  ( -3.491481338843133355E-15, 1.224646799147353207E-16, -1.000000000000000000 ) ) ;
#99 = EDGE_CURVE ( 'NONE', #182, #274, #33, .T. ) ;
#100 = CARTESIAN_POINT ( 'NONE',  ( 8.728703347107833388E-15, 6.844139342517663098E-33, 2.500000000000000000 ) ) ;
#101 = CARTESIAN_POINT ( 'NONE',  ( 0.0000000000000000000, 0.0000000000000000000, 0.0000000000000000000 ) ) ;
#102 = LOCAL_TIME ( 15, 55, 50.00000000000000000, #193 ) ;
#103 = FACE_OUTER_BOUND ( 'NONE', #210, .T. ) ;
#104 = PRODUCT ( '53203', '53203', '', ( #275 ) ) ;
#105 = PERSON_AND_ORGANIZATION_ROLE ( 'design_supplier' ) ;
#106 = DIRECTION ( 'NONE',  ( 4.275831445896958607E-31, 1.000000000000000000, 1.224646799147353207E-16 ) ) ;
#107 = FACE_OUTER_BOUND ( 'NONE', #15, .T. ) ;
#108 = CLOSED_SHELL ( 'NONE', ( #62, #27, #152, #261 ) ) ;
#109 = SECURITY_CLASSIFICATION_LEVEL ( 'unclassified' ) ;
#110 = EDGE_CURVE ( 'NONE', #61, #204, #18, .T. ) ;
#111 = ORIENTED_EDGE ( 'NONE', *, *, #99, .T. ) ;
#112 = CONICAL_SURFACE ( 'NONE', #96, 1.046672672486191447, 0.5235987755983000369 ) ;
#113 = CC_DESIGN_PERSON_AND_ORGANIZATION_ASSIGNMENT ( #293, #58, ( #97 ) ) ;
#114 = ORIENTED_EDGE ( 'NONE', *, *, #99, .F. ) ;
#115 = CYLINDRICAL_SURFACE ( 'NONE', #59, 1.999999999999999112 ) ;
#116 = PERSON_AND_ORGANIZATION_ROLE ( 'design_owner' ) ;
#117 = APPROVAL_PERSON_ORGANIZATION ( #10, #298, #198 ) ;
#118 = DIRECTION ( 'NONE',  ( -3.491481338843133355E-15, 1.224646799147353207E-16, -1.000000000000000000 ) ) ;
#119 = ADVANCED_FACE ( 'NONE', ( #148, #236 ), #115, .T. ) ;
#120 = EDGE_LOOP ( 'NONE', ( #202 ) ) ;
#121 = EDGE_LOOP ( 'NONE', ( #122 ) ) ;
#122 = ORIENTED_EDGE ( 'NONE', *, *, #199, .F. ) ;
#123 = AXIS2_PLACEMENT_3D ( 'NONE', #52, #153, #106 ) ;
#124 = CC_DESIGN_PERSON_AND_ORGANIZATION_ASSIGNMENT ( #245, #70, ( #279 ) ) ;
#125 = DIRECTION ( 'NONE',  ( 3.489354422748178188E-15, 0.03489949670250164920, 0.9993908270190956511 ) ) ;
#126 = LINE ( 'NONE', #190, #215 ) ;
#127 = DIRECTION ( 'NONE',  ( -4.275831445896958607E-31, -1.000000000000000000, -1.224646799147353207E-16 ) ) ;
#128 = COORDINATED_UNIVERSAL_TIME_OFFSET ( 1, 0, .AHEAD. ) ;
#129 = FACE_OUTER_BOUND ( 'NONE', #90, .T. ) ;
#130 = DESIGN_CONTEXT ( 'detailed design', #177, 'design' ) ;
#131 = CARTESIAN_POINT ( 'NONE',  ( 3.491481338843133355E-14, 0.9126980762706276007, 10.00000000000000000 ) ) ;
#132 = MANIFOLD_SOLID_BREP ( 'Corps-Déplacer/Copier1[1]', #49 ) ;
#133 = MANIFOLD_SOLID_BREP ( 'Corps-Déplacer/Copier1[2]', #108 ) ;
#134 = VECTOR ( 'NONE', #254, 1000.000000000000000 ) ;
#135 = COORDINATED_UNIVERSAL_TIME_OFFSET ( 1, 0, .AHEAD. ) ;
#136 = AXIS2_PLACEMENT_3D ( 'NONE', #101, #50, #174 ) ;
#137 = AXIS2_PLACEMENT_3D ( 'NONE', #287, #6, #269 ) ;
#138 = ORIENTED_EDGE ( 'NONE', *, *, #237, .T. ) ;
#139 = EDGE_CURVE ( 'NONE', #31, #31, #272, .T. ) ;
#140 = ORIENTED_EDGE ( 'NONE', *, *, #48, .F. ) ;
#141 = PERSON_AND_ORGANIZATION ( #86, #282 ) ;
#142 = DIRECTION ( 'NONE',  ( -3.491481338843133355E-15, 1.224646799147353207E-16, -1.000000000000000000 ) ) ;
#143 = CALENDAR_DATE ( 2021, 3, 12 ) ;
#144 = ADVANCED_FACE ( 'NONE', ( #195 ), #149, .F. ) ;
#145 = EDGE_LOOP ( 'NONE', ( #13 ) ) ;
#146 = DIRECTION ( 'NONE',  ( -3.491481338843133355E-15, 1.224646799147353207E-16, -1.000000000000000000 ) ) ;
#147 = DIRECTION ( 'NONE',  ( -3.491481338843133355E-15, 1.224646799147353207E-16, -1.000000000000000000 ) ) ;
#148 = FACE_OUTER_BOUND ( 'NONE', #121, .T. ) ;
#149 = PLANE ( 'NONE',  #179 ) ;
#150 = DIRECTION ( 'NONE',  ( 0.0000000000000000000, 1.000000000000000000, 0.0000000000000000000 ) ) ;
#151 = APPROVAL_ROLE ( '' ) ;
#152 = ADVANCED_FACE ( 'NONE', ( #56 ), #238, .T. ) ;
#153 = DIRECTION ( 'NONE',  ( -3.491481338843133355E-15, 1.224646799147353207E-16, -1.000000000000000000 ) ) ;
#154 = CIRCLE ( 'NONE', #76, 1.046672672486191447 ) ;
#155 = LOCAL_TIME ( 15, 55, 50.00000000000000000, #128 ) ;
#156 = VERTEX_POINT ( 'NONE', #243 ) ;
#157 = PERSON_AND_ORGANIZATION ( #86, #282 ) ;
#158 = DIRECTION ( 'NONE',  ( 3.491481338843133355E-15, -1.224646799147353207E-16, 1.000000000000000000 ) ) ;
#159 = DATE_TIME_ROLE ( 'creation_date' ) ;
#160 = SHAPE_DEFINITION_REPRESENTATION ( #197, #14 ) ;
#161 = DIRECTION ( 'NONE',  ( 0.0000000000000000000, 0.0000000000000000000, 1.000000000000000000 ) ) ;
#162 = EDGE_LOOP ( 'NONE', ( #209 ) ) ;
#163 = AXIS2_PLACEMENT_3D ( 'NONE', #26, #8, #214 ) ;
#164 = CARTESIAN_POINT ( 'NONE',  ( -2.137915722948478865E-31, 7.498798913309288039E-33, -6.123233995736766036E-17 ) ) ;
#165 = APPROVAL_ROLE ( '' ) ;
#166 = CARTESIAN_POINT ( 'NONE',  ( 3.491481338843133355E-14, -1.224646799147353256E-15, 10.00000000000000000 ) ) ;
#167 = AXIS2_PLACEMENT_3D ( 'NONE', #169, #43, #234 ) ;
#168 = LOCAL_TIME ( 15, 55, 50.00000000000000000, #67 ) ;
#169 = CARTESIAN_POINT ( 'NONE',  ( -4.275831445896957731E-31, 1.499759782661857608E-32, -1.224646799147353207E-16 ) ) ;
#170 = DIRECTION ( 'NONE',  ( 0.0000000000000000000, 1.000000000000000000, 0.0000000000000000000 ) ) ;
#171 = EDGE_LOOP ( 'NONE', ( #186, #201 ) ) ;
#172 = DIRECTION ( 'NONE',  ( -4.275831445896958607E-31, -1.000000000000000000, -1.224646799147353207E-16 ) ) ;
#173 = DIRECTION ( 'NONE',  ( 0.0000000000000000000, 1.000000000000000000, 0.0000000000000000000 ) ) ;
#174 = DIRECTION ( 'NONE',  ( 4.275831445896957731E-31, 1.000000000000000000, 1.224646799147353454E-16 ) ) ;
#175 = VERTEX_POINT ( 'NONE', #55 ) ;
#176 = DIRECTION ( 'NONE',  ( -3.491481338843133355E-15, 1.224646799147353207E-16, -1.000000000000000000 ) ) ;
#177 = APPLICATION_CONTEXT ( 'configuration controlled 3d designs of mechanical parts and assemblies' ) ;
#178 = DATE_AND_TIME ( #83, #53 ) ;
#179 = AXIS2_PLACEMENT_3D ( 'NONE', #239, #219, #28 ) ;
#180 = CARTESIAN_POINT ( 'NONE',  ( 0.0000000000000000000, 0.0000000000000000000, 0.0000000000000000000 ) ) ;
#181 = ORIENTED_EDGE ( 'NONE', *, *, #139, .F. ) ;
#182 = VERTEX_POINT ( 'NONE', #9 ) ;
#183 = APPROVAL_DATE_TIME ( #208, #54 ) ;
#184 = CARTESIAN_POINT ( 'NONE',  ( 1.117274028429802674E-13, -3.918869757271530263E-15, 32.00000000000000000 ) ) ;
#185 = AXIS2_PLACEMENT_3D ( 'NONE', #180, #161, #228 ) ;
#186 = ORIENTED_EDGE ( 'NONE', *, *, #110, .F. ) ;
#187 = DIRECTION ( 'NONE',  ( 0.0000000000000000000, 1.000000000000000000, 0.0000000000000000000 ) ) ;
#188 = CARTESIAN_POINT ( 'NONE',  ( 4.242572773395700168E-14, -1.488094210696907057E-15, 12.15121136749776554 ) ) ;
#189 = AXIS2_PLACEMENT_3D ( 'NONE', #184, #147, #170 ) ;
#190 = CARTESIAN_POINT ( 'NONE',  ( 9.998294395168295786E-14, -3.506929592249467289E-15, 28.63625328291494654 ) ) ;
#191 = EDGE_CURVE ( 'NONE', #182, #61, #126, .T. ) ;
#192 = FACE_OUTER_BOUND ( 'NONE', #3, .T. ) ;
#193 = COORDINATED_UNIVERSAL_TIME_OFFSET ( 1, 0, .AHEAD. ) ;
#194 = CARTESIAN_POINT ( 'NONE',  ( 8.728703347107833388E-15, 6.844139342517663098E-33, 2.500000000000000000 ) ) ;
#195 = FACE_OUTER_BOUND ( 'NONE', #253, .T. ) ;
#196 = AXIS2_PLACEMENT_3D ( 'NONE', #74, #158, #172 ) ;
#197 = PRODUCT_DEFINITION_SHAPE ( 'NONE', 'NONE',  #279 ) ;
#198 = APPROVAL_ROLE ( '' ) ;
#199 = EDGE_CURVE ( 'NONE', #16, #16, #256, .T. ) ;
#200 =( GEOMETRIC_REPRESENTATION_CONTEXT ( 3 ) GLOBAL_UNCERTAINTY_ASSIGNED_CONTEXT ( ( #217 ) ) GLOBAL_UNIT_ASSIGNED_CONTEXT ( ( #39, #300, #21 ) ) REPRESENTATION_CONTEXT ( 'NONE', 'WORKASPACE' ) );
#201 = ORIENTED_EDGE ( 'NONE', *, *, #292, .T. ) ;
#202 = ORIENTED_EDGE ( 'NONE', *, *, #267, .T. ) ;
#203 = ADVANCED_FACE ( 'NONE', ( #4, #266 ), #112, .T. ) ;
#204 = VERTEX_POINT ( 'NONE', #270 ) ;
#205 = AXIS2_PLACEMENT_3D ( 'NONE', #260, #146, #45 ) ;
#206 = APPLICATION_PROTOCOL_DEFINITION ( 'international standard', 'config_control_design', 1994, #177 ) ;
#207 = PLANE ( 'NONE',  #68 ) ;
#208 = DATE_AND_TIME ( #143, #168 ) ;
#209 = ORIENTED_EDGE ( 'NONE', *, *, #199, .T. ) ;
#210 = EDGE_LOOP ( 'NONE', ( #138 ) ) ;
#211 = CC_DESIGN_PERSON_AND_ORGANIZATION_ASSIGNMENT ( #141, #116, ( #104 ) ) ;
#212 = FACE_OUTER_BOUND ( 'NONE', #73, .T. ) ;
#213 = DIRECTION ( 'NONE',  ( -3.491481338843133355E-15, 1.224646799147353207E-16, -1.000000000000000000 ) ) ;
#214 = DIRECTION ( 'NONE',  ( -3.491481338843133355E-15, 0.0000000000000000000, -1.000000000000000000 ) ) ;
#215 = VECTOR ( 'NONE', #125, 1000.000000000000227 ) ;
#216 = DIRECTION ( 'NONE',  ( 0.0000000000000000000, 1.000000000000000000, 0.0000000000000000000 ) ) ;
#217 = UNCERTAINTY_MEASURE_WITH_UNIT (LENGTH_MEASURE( 1.000000000000000082E-05 ), #39, 'distance_accuracy_value', 'NONE');
#218 = PLANE ( 'NONE',  #196 ) ;
#219 = DIRECTION ( 'NONE',  ( -3.491481338843133355E-15, 1.224646799147353207E-16, -1.000000000000000000 ) ) ;
#220 = CARTESIAN_POINT ( 'NONE',  ( 4.242572773395700168E-14, 1.999999999999996225, 12.15121136749776554 ) ) ;
#221 = AXIS2_PLACEMENT_3D ( 'NONE', #301, #98, #187 ) ;
#222 = CALENDAR_DATE ( 2021, 3, 12 ) ;
#223 = CONICAL_SURFACE ( 'NONE', #189, 1.600000000000000977, 0.7853981633974512766 ) ;
#224 = APPROVAL_PERSON_ORGANIZATION ( #30, #11, #151 ) ;
#225 = ORIENTED_EDGE ( 'NONE', *, *, #75, .T. ) ;
#226 = ADVANCED_FACE ( 'NONE', ( #107, #291 ), #25, .T. ) ;
#227 = ORIENTED_EDGE ( 'NONE', *, *, #191, .T. ) ;
#228 = DIRECTION ( 'NONE',  ( 1.000000000000000000, 0.0000000000000000000, 0.0000000000000000000 ) ) ;
#229 = FACE_BOUND ( 'NONE', #120, .T. ) ;
#230 = AXIS2_PLACEMENT_3D ( 'NONE', #95, #118, #44 ) ;
#231 = CIRCLE ( 'NONE', #137, 1.600000000000000977 ) ;
#232 = ORIENTED_EDGE ( 'NONE', *, *, #38, .T. ) ;
#233 = ORIENTED_EDGE ( 'NONE', *, *, #17, .T. ) ;
#234 = DIRECTION ( 'NONE',  ( 4.275831445896958607E-31, 1.000000000000000000, 1.224646799147353207E-16 ) ) ;
#235 = CC_DESIGN_APPROVAL ( #54, ( #279 ) ) ;
#236 = FACE_OUTER_BOUND ( 'NONE', #40, .T. ) ;
#237 = EDGE_CURVE ( 'NONE', #295, #295, #154, .T. ) ;
#238 = PLANE ( 'NONE',  #41 ) ;
#239 = CARTESIAN_POINT ( 'NONE',  ( 1.117274028429802674E-13, 1.199807826129481023E-32, 32.00000000000000000 ) ) ;
#240 = AXIS2_PLACEMENT_3D ( 'NONE', #188, #213, #216 ) ;
#241 = TOROIDAL_SURFACE ( 'NONE', #123, 1.912698076270629155, 0.9999999999999997780 ) ;
#242 = DIRECTION ( 'NONE',  ( -3.491481338843133355E-15, 1.224646799147353207E-16, -1.000000000000000000 ) ) ;
#243 = CARTESIAN_POINT ( 'NONE',  ( 8.728703347107833388E-15, 0.9126980762706283778, 2.500000000000000000 ) ) ;
#244 = ADVANCED_FACE ( 'NONE', ( #129 ), #218, .F. ) ;
#245 = PERSON_AND_ORGANIZATION ( #86, #282 ) ;
#246 = APPROVAL_DATE_TIME ( #80, #11 ) ;
#247 = AXIS2_PLACEMENT_3D ( 'NONE', #166, #242, #173 ) ;
#248 = ORIENTED_EDGE ( 'NONE', *, *, #110, .T. ) ;
#249 = PRODUCT_DEFINITION_FORMATION_WITH_SPECIFIED_SOURCE ( 'ANY', '', #104, .NOT_KNOWN. ) ;
#250 = PRODUCT_RELATED_PRODUCT_CATEGORY ( 'detail', '', ( #104 ) ) ;
#251 = ORIENTED_EDGE ( 'NONE', *, *, #191, .F. ) ;
#252 = CARTESIAN_POINT ( 'NONE',  ( 3.666055405785290654E-14, 1.046672672486190336, 10.50000000000000178 ) ) ;
#253 = EDGE_LOOP ( 'NONE', ( #1 ) ) ;
#254 = DIRECTION ( 'NONE',  ( -4.275831445896958607E-31, -1.000000000000000000, -1.224646799147353207E-16 ) ) ;
#255 = ORIENTED_EDGE ( 'NONE', *, *, #237, .F. ) ;
#256 = CIRCLE ( 'NONE', #240, 1.999999999999997335 ) ;
#257 = CC_DESIGN_DATE_AND_TIME_ASSIGNMENT ( #178, #78, ( #97 ) ) ;
#258 = CARTESIAN_POINT ( 'NONE',  ( 8.728703347107833388E-15, -3.061616997868383141E-16, 2.500000000000000000 ) ) ;
#259 = DIRECTION ( 'NONE',  ( 4.275831445896958607E-31, 1.000000000000000000, 1.224646799147353207E-16 ) ) ;
#260 = CARTESIAN_POINT ( 'NONE',  ( 8.728703347107833388E-15, -3.061616997868383141E-16, 2.500000000000000000 ) ) ;
#261 = ADVANCED_FACE ( 'NONE', ( #263 ), #47, .T. ) ;
#262 = CONICAL_SURFACE ( 'NONE', #230, 1.000000000000000000, 0.03490658503988739586 ) ;
#263 = FACE_OUTER_BOUND ( 'NONE', #37, .T. ) ;
#264 = DIRECTION ( 'NONE',  ( 0.0000000000000000000, -1.000000000000000000, 0.0000000000000000000 ) ) ;
#265 = CALENDAR_DATE ( 2021, 3, 12 ) ;
#266 = FACE_BOUND ( 'NONE', #277, .T. ) ;
#267 = EDGE_CURVE ( 'NONE', #64, #64, #231, .T. ) ;
#268 = VECTOR ( 'NONE', #290, 1000.000000000000000 ) ;
#269 = DIRECTION ( 'NONE',  ( 0.0000000000000000000, 1.000000000000000000, 0.0000000000000000000 ) ) ;
#270 = CARTESIAN_POINT ( 'NONE',  ( 8.728703347107833388E-15, 0.9126980762706283778, 2.500000000000000000 ) ) ;
#271 = APPROVAL_STATUS ( 'not_yet_approved' ) ;
#272 = CIRCLE ( 'NONE', #247, 0.9126980762706288219 ) ;
#273 = CC_DESIGN_APPROVAL ( #298, ( #249 ) ) ;
#274 = VERTEX_POINT ( 'NONE', #77 ) ;
#275 = MECHANICAL_CONTEXT ( 'NONE', #12, 'mechanical' ) ;
#276 = ORIENTED_EDGE ( 'NONE', *, *, #139, .T. ) ;
#277 = EDGE_LOOP ( 'NONE', ( #255 ) ) ;
#278 = CARTESIAN_POINT ( 'NONE',  ( 0.0000000000000000000, 1.000000000000000000, 0.0000000000000000000 ) ) ;
#279 = PRODUCT_DEFINITION ( 'UNKNOWN', '', #249, #130 ) ;
#280 = CARTESIAN_POINT ( 'NONE',  ( 8.728703347107831810E-15, -0.9126980762706291550, 2.499999999999999556 ) ) ;
#281 = VECTOR ( 'NONE', #284, 1000.000000000000227 ) ;
#282 = ORGANIZATION ( 'UNSPECIFIED', 'UNSPECIFIED', '' ) ;
#283 = LINE ( 'NONE', #23, #281 ) ;
#284 = DIRECTION ( 'NONE',  ( -3.489354422748178188E-15, 0.03489949670250189900, -0.9993908270190956511 ) ) ;
#285 = CARTESIAN_POINT ( 'NONE',  ( 3.666055405785290654E-14, -1.285879139104721028E-15, 10.50000000000000178 ) ) ;
#286 = CC_DESIGN_SECURITY_CLASSIFICATION ( #97, ( #249 ) ) ;
#287 = CARTESIAN_POINT ( 'NONE',  ( 1.117274028429802674E-13, -3.918869757271530263E-15, 32.00000000000000000 ) ) ;
#288 = ADVANCED_FACE ( 'NONE', ( #103, #192 ), #241, .F. ) ;
#289 = COORDINATED_UNIVERSAL_TIME_OFFSET ( 1, 0, .AHEAD. ) ;
#290 = DIRECTION ( 'NONE',  ( 4.275831445896958607E-31, 1.000000000000000000, 1.224646799147353207E-16 ) ) ;
#291 = FACE_OUTER_BOUND ( 'NONE', #145, .T. ) ;
#292 = EDGE_CURVE ( 'NONE', #61, #204, #79, .T. ) ;
#293 = PERSON_AND_ORGANIZATION ( #86, #282 ) ;
#294 = CC_DESIGN_PERSON_AND_ORGANIZATION_ASSIGNMENT ( #157, #105, ( #249 ) ) ;
#295 = VERTEX_POINT ( 'NONE', #252 ) ;
#296 = ORIENTED_EDGE ( 'NONE', *, *, #75, .F. ) ;
#297 = APPROVAL_STATUS ( 'not_yet_approved' ) ;
#298 = APPROVAL ( #271, 'UNSPECIFIED' ) ;
#299 = DIRECTION ( 'NONE',  ( 4.275831445896958607E-31, 1.000000000000000000, 1.224646799147353207E-16 ) ) ;
#300 =( NAMED_UNIT ( * ) PLANE_ANGLE_UNIT ( ) SI_UNIT ( $, .RADIAN. ) );
#301 = CARTESIAN_POINT ( 'NONE',  ( 1.103308103074430140E-13, -3.869883885305636046E-15, 31.60000000000000142 ) ) ;
ENDSEC;
END-ISO-10303-21;
