ISO-10303-21;
HEADER;
FILE_DESCRIPTION (( 'STEP AP203' ),
    '1' );
FILE_NAME ('53202.step',
    '2021-12-03T14:55:49',
    ( '' ),
    ( '' ),
    'SwSTEP 2.0',
    'SolidWorks 2019',
    '' );
FILE_SCHEMA (( 'CONFIG_CONTROL_DESIGN' ));
ENDSEC;

DATA;
#1 = ORIENTED_EDGE ( 'NONE', *, *, #6, .T. ) ;
#2 = APPROVAL_ROLE ( '' ) ;
#3 = ORIENTED_EDGE ( 'NONE', *, *, #57, .T. ) ;
#4 = EDGE_CURVE ( 'NONE', #199, #199, #60, .T. ) ;
#5 = DATE_AND_TIME ( #105, #28 ) ;
#6 = EDGE_CURVE ( 'NONE', #243, #110, #209, .T. ) ;
#7 = EDGE_LOOP ( 'NONE', ( #3 ) ) ;
#8 = AXIS2_PLACEMENT_3D ( 'NONE', #213, #206, #23 ) ;
#9 = FACE_OUTER_BOUND ( 'NONE', #24, .T. ) ;
#10 = EDGE_LOOP ( 'NONE', ( #16 ) ) ;
#11 = CC_DESIGN_PERSON_AND_ORGANIZATION_ASSIGNMENT ( #187, #143, ( #104 ) ) ;
#12 = DIRECTION ( 'NONE',  ( 4.275831445896958607E-31, 1.000000000000000000, 1.224646799147353207E-16 ) ) ;
#13 = ORIENTED_EDGE ( 'NONE', *, *, #114, .T. ) ;
#14 = DIRECTION ( 'NONE',  ( 0.0000000000000000000, 1.000000000000000000, 0.0000000000000000000 ) ) ;
#15 = PERSON ( 'UNSPECIFIED', 'UNSPECIFIED', 'UNSPECIFIED', ('UNSPECIFIED'), ('UNSPECIFIED'), ('UNSPECIFIED') ) ;
#16 = ORIENTED_EDGE ( 'NONE', *, *, #4, .F. ) ;
#17 = VECTOR ( 'NONE', #230, 1000.000000000000227 ) ;
#18 = DIRECTION ( 'NONE',  ( -3.491481338843133355E-15, 0.0000000000000000000, -1.000000000000000000 ) ) ;
#19 = VERTEX_POINT ( 'NONE', #156 ) ;
#20 = CARTESIAN_POINT ( 'NONE',  ( 8.998464955651469994E-14, -3.156236633024522295E-15, 25.77262795462346290 ) ) ;
#21 = PERSON_AND_ORGANIZATION_ROLE ( 'design_supplier' ) ;
#22 = FACE_OUTER_BOUND ( 'NONE', #226, .T. ) ;
#23 = DIRECTION ( 'NONE',  ( 1.000000000000000000, 0.0000000000000000000, 0.0000000000000000000 ) ) ;
#24 = EDGE_LOOP ( 'NONE', ( #13 ) ) ;
#25 = CYLINDRICAL_SURFACE ( 'NONE', #117, 0.8161901532198037046 ) ;
#26 = CARTESIAN_POINT ( 'NONE',  ( 8.379555213223518475E-15, 0.8161901532198032605, 2.399999999999999911 ) ) ;
#27 = DIRECTION ( 'NONE',  ( -4.275831445896957731E-31, -1.000000000000000000, -1.224646799147352961E-16 ) ) ;
#28 = LOCAL_TIME ( 15, 55, 49.00000000000000000, #265 ) ;
#29 = CARTESIAN_POINT ( 'NONE',  ( -1.924124150653631066E-31, 6.748919021978357867E-33, -5.510910596163088939E-17 ) ) ;
#30 = DIRECTION ( 'NONE',  ( 0.0000000000000000000, 1.000000000000000000, 0.0000000000000000000 ) ) ;
#31 = DIRECTION ( 'NONE',  ( -3.491481338843133355E-15, 1.224646799147353207E-16, -1.000000000000000000 ) ) ;
#32 = ORIENTED_EDGE ( 'NONE', *, *, #198, .F. ) ;
#33 = CARTESIAN_POINT ( 'NONE',  ( 8.379555213223518475E-15, 6.120445834018399127E-33, 2.399999999999999911 ) ) ;
#34 = EDGE_LOOP ( 'NONE', ( #38 ) ) ;
#35 = CARTESIAN_POINT ( 'NONE',  ( 1.117274028429802674E-13, 1.199807826129481023E-32, 32.00000000000000000 ) ) ;
#36 = AXIS2_PLACEMENT_3D ( 'NONE', #233, #207, #140 ) ;
#37 = DIRECTION ( 'NONE',  ( 4.275831445896958607E-31, 1.000000000000000000, 1.224646799147353207E-16 ) ) ;
#38 = ORIENTED_EDGE ( 'NONE', *, *, #177, .T. ) ;
#39 = COORDINATED_UNIVERSAL_TIME_OFFSET ( 1, 0, .AHEAD. ) ;
#40 = VERTEX_POINT ( 'NONE', #42 ) ;
#41 = PERSON_AND_ORGANIZATION ( #15, #77 ) ;
#42 = CARTESIAN_POINT ( 'NONE',  ( 8.379555213223516897E-15, -0.8161901532198039266, 2.399999999999999467 ) ) ;
#43 = SECURITY_CLASSIFICATION_LEVEL ( 'unclassified' ) ;
#44 = FACE_OUTER_BOUND ( 'NONE', #245, .T. ) ;
#45 =( LENGTH_UNIT ( ) NAMED_UNIT ( * ) SI_UNIT ( .MILLI., .METRE. ) );
#46 = VERTEX_POINT ( 'NONE', #276 ) ;
#47 = PLANE ( 'NONE',  #190 ) ;
#48 = CC_DESIGN_DATE_AND_TIME_ASSIGNMENT ( #210, #218, ( #282 ) ) ;
#49 = APPROVAL_STATUS ( 'not_yet_approved' ) ;
#50 = AXIS2_PLACEMENT_3D ( 'NONE', #201, #273, #179 ) ;
#51 = ORIENTED_EDGE ( 'NONE', *, *, #177, .F. ) ;
#52 = PLANE ( 'NONE',  #225 ) ;
#53 = EDGE_LOOP ( 'NONE', ( #132 ) ) ;
#54 = DIRECTION ( 'NONE',  ( -3.491481338843133355E-15, 1.224646799147353207E-16, -1.000000000000000000 ) ) ;
#55 = CLOSED_SHELL ( 'NONE', ( #204, #121, #286, #129, #288, #126, #261 ) ) ;
#56 = VERTEX_POINT ( 'NONE', #135 ) ;
#57 = EDGE_CURVE ( 'NONE', #56, #56, #74, .T. ) ;
#58 = DIRECTION ( 'NONE',  ( 3.489354422748178188E-15, 0.03489949670250162839, 0.9993908270190956511 ) ) ;
#59 = CARTESIAN_POINT ( 'NONE',  ( 1.117274028429802674E-13, 1.599999999999996980, 32.00000000000000000 ) ) ;
#60 = CIRCLE ( 'NONE', #185, 1.600000000000000977 ) ;
#61 = APPROVAL_DATE_TIME ( #277, #130 ) ;
#62 = CC_DESIGN_SECURITY_CLASSIFICATION ( #282, ( #150 ) ) ;
#63 = CARTESIAN_POINT ( 'NONE',  ( 0.0000000000000000000, 0.0000000000000000000, 0.0000000000000000000 ) ) ;
#64 = COORDINATED_UNIVERSAL_TIME_OFFSET ( 1, 0, .AHEAD. ) ;
#65 = EDGE_CURVE ( 'NONE', #110, #243, #142, .T. ) ;
#66 = CARTESIAN_POINT ( 'NONE',  ( 1.117274028429802674E-13, -3.918869757271530263E-15, 32.00000000000000000 ) ) ;
#67 = PERSON_AND_ORGANIZATION ( #15, #77 ) ;
#68 = PRODUCT_RELATED_PRODUCT_CATEGORY ( 'detail', '', ( #104 ) ) ;
#69 = ORIENTED_EDGE ( 'NONE', *, *, #147, .F. ) ;
#70 = EDGE_LOOP ( 'NONE', ( #271 ) ) ;
#71 = CALENDAR_DATE ( 2021, 3, 12 ) ;
#72 = FACE_OUTER_BOUND ( 'NONE', #34, .T. ) ;
#73 = APPROVAL ( #49, 'UNSPECIFIED' ) ;
#74 = CIRCLE ( 'NONE', #154, 0.8161901532198037046 ) ;
#75 = CC_DESIGN_PERSON_AND_ORGANIZATION_ASSIGNMENT ( #228, #21, ( #150 ) ) ;
#76 = SHAPE_DEFINITION_REPRESENTATION ( #167, #82 ) ;
#77 = ORGANIZATION ( 'UNSPECIFIED', 'UNSPECIFIED', '' ) ;
#78 = CARTESIAN_POINT ( 'NONE',  ( -3.848248301307262133E-31, 1.349783804395671573E-32, -1.102182119232617788E-16 ) ) ;
#79 = PLANE ( 'NONE',  #258 ) ;
#80 = EDGE_LOOP ( 'NONE', ( #51 ) ) ;
#81 = CIRCLE ( 'NONE', #124, 1.999999999999997335 ) ;
#82 = ADVANCED_BREP_SHAPE_REPRESENTATION ( '53202', ( #171, #268, #8 ), #293 ) ;
#83 = DIRECTION ( 'NONE',  ( 1.000000000000000000, 0.0000000000000000000, -3.491481338843133355E-15 ) ) ;
#84 = EDGE_LOOP ( 'NONE', ( #94, #136, #178, #283 ) ) ;
#85 = DIRECTION ( 'NONE',  ( -3.491481338843133355E-15, 1.224646799147353207E-16, -1.000000000000000000 ) ) ;
#86 = CARTESIAN_POINT ( 'NONE',  ( 1.117274028429802674E-13, -3.918869757271530263E-15, 32.00000000000000000 ) ) ;
#87 = CALENDAR_DATE ( 2021, 3, 12 ) ;
#88 = TOROIDAL_SURFACE ( 'NONE', #106, 1.816190153219803483, 0.9999999999999991118 ) ;
#89 = APPLICATION_PROTOCOL_DEFINITION ( 'international standard', 'config_control_design', 1994, #203 ) ;
#90 = ADVANCED_FACE ( 'NONE', ( #144 ), #214, .T. ) ;
#91 = DIRECTION ( 'NONE',  ( -3.491481338843133355E-15, 1.224646799147353207E-16, -1.000000000000000000 ) ) ;
#92 = DIRECTION ( 'NONE',  ( 0.0000000000000000000, 1.000000000000000000, 0.0000000000000000000 ) ) ;
#93 = EDGE_CURVE ( 'NONE', #46, #110, #260, .T. ) ;
#94 = ORIENTED_EDGE ( 'NONE', *, *, #6, .F. ) ;
#95 = DATE_TIME_ROLE ( 'creation_date' ) ;
#96 = AXIS2_PLACEMENT_3D ( 'NONE', #294, #85, #249 ) ;
#97 = CC_DESIGN_PERSON_AND_ORGANIZATION_ASSIGNMENT ( #116, #139, ( #282 ) ) ;
#98 = DIRECTION ( 'NONE',  ( 0.0000000000000000000, -1.000000000000000000, 0.0000000000000000000 ) ) ;
#99 = APPROVAL_DATE_TIME ( #5, #73 ) ;
#100 = APPROVAL_ROLE ( '' ) ;
#101 = APPLICATION_CONTEXT ( 'configuration controlled 3d designs of mechanical parts and assemblies' ) ;
#102 = CC_DESIGN_PERSON_AND_ORGANIZATION_ASSIGNMENT ( #263, #137, ( #150 ) ) ;
#103 = LOCAL_TIME ( 15, 55, 49.00000000000000000, #189 ) ;
#104 = PRODUCT ( '53202', '53202', '', ( #162 ) ) ;
#105 = CALENDAR_DATE ( 2021, 3, 12 ) ;
#106 = AXIS2_PLACEMENT_3D ( 'NONE', #157, #54, #37 ) ;
#107 = EDGE_LOOP ( 'NONE', ( #262 ) ) ;
#108 = CARTESIAN_POINT ( 'NONE',  ( 1.103308103074430140E-13, -3.869883885305636046E-15, 31.60000000000000142 ) ) ;
#109 = FACE_OUTER_BOUND ( 'NONE', #255, .T. ) ;
#110 = VERTEX_POINT ( 'NONE', #295 ) ;
#111 = DIRECTION ( 'NONE',  ( 4.275831445896958607E-31, 1.000000000000000000, 1.224646799147352961E-16 ) ) ;
#112 = AXIS2_PLACEMENT_3D ( 'NONE', #33, #227, #222 ) ;
#113 = DIRECTION ( 'NONE',  ( -3.491481338843133355E-15, 1.224646799147353207E-16, -1.000000000000000000 ) ) ;
#114 = EDGE_CURVE ( 'NONE', #19, #19, #299, .T. ) ;
#115 = FACE_OUTER_BOUND ( 'NONE', #7, .T. ) ;
#116 = PERSON_AND_ORGANIZATION ( #15, #77 ) ;
#117 = AXIS2_PLACEMENT_3D ( 'NONE', #63, #122, #163 ) ;
#118 = CALENDAR_DATE ( 2021, 3, 12 ) ;
#119 = DIRECTION ( 'NONE',  ( -3.491481338843133355E-15, 1.224646799147353207E-16, -1.000000000000000000 ) ) ;
#120 = VERTEX_POINT ( 'NONE', #141 ) ;
#121 = ADVANCED_FACE ( 'NONE', ( #115, #44 ), #25, .T. ) ;
#122 = DIRECTION ( 'NONE',  ( -3.491481338843133355E-15, 1.224646799147353207E-16, -1.000000000000000000 ) ) ;
#123 = DIRECTION ( 'NONE',  ( -4.275831445896958607E-31, -1.000000000000000000, -1.224646799147353207E-16 ) ) ;
#124 = AXIS2_PLACEMENT_3D ( 'NONE', #153, #221, #14 ) ;
#125 = APPROVAL_PERSON_ORGANIZATION ( #195, #73, #100 ) ;
#126 = ADVANCED_FACE ( 'NONE', ( #22, #188 ), #287, .T. ) ;
#127 = AXIS2_PLACEMENT_3D ( 'NONE', #108, #246, #224 ) ;
#128 = UNCERTAINTY_MEASURE_WITH_UNIT (LENGTH_MEASURE( 1.000000000000000082E-05 ), #45, 'distance_accuracy_value', 'NONE');
#129 = ADVANCED_FACE ( 'NONE', ( #72, #285 ), #272, .T. ) ;
#130 = APPROVAL ( #238, 'UNSPECIFIED' ) ;
#131 = FACE_OUTER_BOUND ( 'NONE', #107, .T. ) ;
#132 = ORIENTED_EDGE ( 'NONE', *, *, #4, .T. ) ;
#133 = CYLINDRICAL_SURFACE ( 'NONE', #96, 1.999999999999999112 ) ;
#134 = ORIENTED_EDGE ( 'NONE', *, *, #65, .F. ) ;
#135 = CARTESIAN_POINT ( 'NONE',  ( 3.142333204958820020E-14, 0.8161901532198025944, 9.000000000000000000 ) ) ;
#136 = ORIENTED_EDGE ( 'NONE', *, *, #278, .T. ) ;
#137 = PERSON_AND_ORGANIZATION_ROLE ( 'creator' ) ;
#138 = DIRECTION ( 'NONE',  ( -3.491481338843133355E-15, 1.224646799147353207E-16, -1.000000000000000000 ) ) ;
#139 = PERSON_AND_ORGANIZATION_ROLE ( 'classification_officer' ) ;
#140 = DIRECTION ( 'NONE',  ( 0.0000000000000000000, 1.000000000000000000, 0.0000000000000000000 ) ) ;
#141 = CARTESIAN_POINT ( 'NONE',  ( 1.103308103074430140E-13, 1.999999999999997113, 31.60000000000000142 ) ) ;
#142 = LINE ( 'NONE', #279, #232 ) ;
#143 = PERSON_AND_ORGANIZATION_ROLE ( 'design_owner' ) ;
#144 = FACE_OUTER_BOUND ( 'NONE', #247, .T. ) ;
#145 = DATE_AND_TIME ( #87, #103 ) ;
#146 = CARTESIAN_POINT ( 'NONE',  ( 3.316907271900975425E-14, -1.163414459189985288E-15, 9.499999999999998224 ) ) ;
#147 = EDGE_CURVE ( 'NONE', #40, #46, #239, .T. ) ;
#148 = ADVANCED_FACE ( 'NONE', ( #264 ), #47, .T. ) ;
#149 = AXIS2_PLACEMENT_3D ( 'NONE', #234, #119, #275 ) ;
#150 = PRODUCT_DEFINITION_FORMATION_WITH_SPECIFIED_SOURCE ( 'ANY', '', #104, .NOT_KNOWN. ) ;
#151 = DIRECTION ( 'NONE',  ( -3.491481338843133355E-15, 1.224646799147353207E-16, -1.000000000000000000 ) ) ;
#152 = ORIENTED_EDGE ( 'NONE', *, *, #254, .F. ) ;
#153 = CARTESIAN_POINT ( 'NONE',  ( 3.951787063565577773E-14, -1.386100313487866574E-15, 11.31836799355474099 ) ) ;
#154 = AXIS2_PLACEMENT_3D ( 'NONE', #186, #138, #92 ) ;
#155 = CC_DESIGN_PERSON_AND_ORGANIZATION_ASSIGNMENT ( #41, #235, ( #266 ) ) ;
#156 = CARTESIAN_POINT ( 'NONE',  ( 3.316907271900975425E-14, 0.9501647494353652190, 9.499999999999998224 ) ) ;
#157 = CARTESIAN_POINT ( 'NONE',  ( 3.142333204958820020E-14, -1.084202172485504434E-15, 9.000000000000000000 ) ) ;
#158 = ORIENTED_EDGE ( 'NONE', *, *, #278, .F. ) ;
#159 = LINE ( 'NONE', #205, #160 ) ;
#160 = VECTOR ( 'NONE', #58, 1000.000000000000227 ) ;
#161 = CC_DESIGN_APPROVAL ( #130, ( #150 ) ) ;
#162 = MECHANICAL_CONTEXT ( 'NONE', #203, 'mechanical' ) ;
#163 = DIRECTION ( 'NONE',  ( 4.275831445896958607E-31, 1.000000000000000000, 1.224646799147353207E-16 ) ) ;
#164 = CARTESIAN_POINT ( 'NONE',  ( 3.951787063565577773E-14, 1.999999999999996225, 11.31836799355474099 ) ) ;
#165 = DIRECTION ( 'NONE',  ( -3.491481338843133355E-15, 1.224646799147353207E-16, -1.000000000000000000 ) ) ;
#166 = CIRCLE ( 'NONE', #220, 0.8161901532198035936 ) ;
#167 = PRODUCT_DEFINITION_SHAPE ( 'NONE', 'NONE',  #266 ) ;
#168 = DIRECTION ( 'NONE',  ( 3.491481338843133355E-15, -1.224646799147353207E-16, 1.000000000000000000 ) ) ;
#169 = APPLICATION_PROTOCOL_DEFINITION ( 'international standard', 'config_control_design', 1994, #101 ) ;
#170 = EDGE_LOOP ( 'NONE', ( #191 ) ) ;
#171 = MANIFOLD_SOLID_BREP ( 'Corps-Déplacer/Copier1[1]', #55 ) ;
#172 = DIRECTION ( 'NONE',  ( 4.275831445896958607E-31, 1.000000000000000000, 1.224646799147353207E-16 ) ) ;
#173 = AXIS2_PLACEMENT_3D ( 'NONE', #66, #165, #256 ) ;
#174 = DESIGN_CONTEXT ( 'detailed design', #101, 'design' ) ;
#175 = AXIS2_PLACEMENT_3D ( 'NONE', #78, #183, #111 ) ;
#176 = CARTESIAN_POINT ( 'NONE',  ( -7.696496602614524266E-31, -0.9000000000000000222, -2.204364238465235576E-16 ) ) ;
#177 = EDGE_CURVE ( 'NONE', #208, #208, #81, .T. ) ;
#178 = ORIENTED_EDGE ( 'NONE', *, *, #236, .T. ) ;
#179 = DIRECTION ( 'NONE',  ( 0.0000000000000000000, 1.000000000000000000, 0.0000000000000000000 ) ) ;
#180 = AXIS2_PLACEMENT_3D ( 'NONE', #146, #216, #98 ) ;
#181 = CARTESIAN_POINT ( 'NONE',  ( 8.379555213223518475E-15, -2.939152317953647106E-16, 2.399999999999999911 ) ) ;
#182 = ADVANCED_FACE ( 'NONE', ( #291 ), #79, .T. ) ;
#183 = DIRECTION ( 'NONE',  ( -3.491481338843133355E-15, 1.224646799147353207E-16, -1.000000000000000000 ) ) ;
#184 = DIRECTION ( 'NONE',  ( 0.0000000000000000000, 1.000000000000000000, 0.0000000000000000000 ) ) ;
#185 = AXIS2_PLACEMENT_3D ( 'NONE', #86, #91, #184 ) ;
#186 = CARTESIAN_POINT ( 'NONE',  ( 3.142333204958820020E-14, -1.102182119232617714E-15, 9.000000000000000000 ) ) ;
#187 = PERSON_AND_ORGANIZATION ( #15, #77 ) ;
#188 = FACE_BOUND ( 'NONE', #53, .T. ) ;
#189 = COORDINATED_UNIVERSAL_TIME_OFFSET ( 1, 0, .AHEAD. ) ;
#190 = AXIS2_PLACEMENT_3D ( 'NONE', #29, #151, #290 ) ;
#191 = ORIENTED_EDGE ( 'NONE', *, *, #198, .T. ) ;
#192 = DATE_AND_TIME ( #296, #267 ) ;
#193 = CARTESIAN_POINT ( 'NONE',  ( 8.379555213223518475E-15, 6.120445834018399127E-33, 2.399999999999999911 ) ) ;
#194 = LOCAL_TIME ( 15, 55, 49.00000000000000000, #231 ) ;
#195 = PERSON_AND_ORGANIZATION ( #15, #77 ) ;
#196 = CARTESIAN_POINT ( 'NONE',  ( 0.0000000000000000000, 0.0000000000000000000, 0.0000000000000000000 ) ) ;
#197 = CC_DESIGN_APPROVAL ( #73, ( #282 ) ) ;
#198 = EDGE_CURVE ( 'NONE', #120, #120, #250, .T. ) ;
#199 = VERTEX_POINT ( 'NONE', #59 ) ;
#200 = ORIENTED_EDGE ( 'NONE', *, *, #236, .F. ) ;
#201 = CARTESIAN_POINT ( 'NONE',  ( 8.379555213223518475E-15, -2.939152317953647106E-16, 2.399999999999999911 ) ) ;
#202 = CONICAL_SURFACE ( 'NONE', #175, 0.9000000000000000222, 0.03490658503988737504 ) ;
#203 = APPLICATION_CONTEXT ( 'configuration controlled 3d designs of mechanical parts and assemblies' ) ;
#204 = ADVANCED_FACE ( 'NONE', ( #131 ), #274, .F. ) ;
#205 = CARTESIAN_POINT ( 'NONE',  ( 8.998464955651469994E-14, -3.156236633024522295E-15, 25.77262795462346290 ) ) ;
#206 = DIRECTION ( 'NONE',  ( 0.0000000000000000000, 0.0000000000000000000, 1.000000000000000000 ) ) ;
#207 = DIRECTION ( 'NONE',  ( -3.491481338843133355E-15, 1.224646799147353207E-16, -1.000000000000000000 ) ) ;
#208 = VERTEX_POINT ( 'NONE', #164 ) ;
#209 = CIRCLE ( 'NONE', #149, 0.9000000000000000222 ) ;
#210 = DATE_AND_TIME ( #118, #194 ) ;
#211 = APPROVAL ( #253, 'UNSPECIFIED' ) ;
#212 = EDGE_LOOP ( 'NONE', ( #1, #269 ) ) ;
#213 = CARTESIAN_POINT ( 'NONE',  ( 0.0000000000000000000, 0.0000000000000000000, 0.0000000000000000000 ) ) ;
#214 = PLANE ( 'NONE',  #292 ) ;
#215 = APPROVAL_DATE_TIME ( #145, #211 ) ;
#216 = DIRECTION ( 'NONE',  ( 3.491481338843133355E-15, -1.224646799147353207E-16, 1.000000000000000000 ) ) ;
#217 = VECTOR ( 'NONE', #172, 1000.000000000000000 ) ;
#218 = DATE_TIME_ROLE ( 'classification_date' ) ;
#219 = FACE_OUTER_BOUND ( 'NONE', #170, .T. ) ;
#220 = AXIS2_PLACEMENT_3D ( 'NONE', #181, #113, #30 ) ;
#221 = DIRECTION ( 'NONE',  ( -3.491481338843133355E-15, 1.224646799147353207E-16, -1.000000000000000000 ) ) ;
#222 = DIRECTION ( 'NONE',  ( -4.275831445896958607E-31, -1.000000000000000000, -1.224646799147353207E-16 ) ) ;
#223 = ORIENTED_EDGE ( 'NONE', *, *, #57, .F. ) ;
#224 = DIRECTION ( 'NONE',  ( 0.0000000000000000000, 1.000000000000000000, 0.0000000000000000000 ) ) ;
#225 = AXIS2_PLACEMENT_3D ( 'NONE', #35, #31, #12 ) ;
#226 = EDGE_LOOP ( 'NONE', ( #32 ) ) ;
#227 = DIRECTION ( 'NONE',  ( 3.491481338843133355E-15, -1.224646799147353207E-16, 1.000000000000000000 ) ) ;
#228 = PERSON_AND_ORGANIZATION ( #15, #77 ) ;
#229 = ADVANCED_FACE ( 'NONE', ( #270 ), #202, .T. ) ;
#230 = DIRECTION ( 'NONE',  ( -3.489354422748178188E-15, 0.03489949670250187819, -0.9993908270190956511 ) ) ;
#231 = COORDINATED_UNIVERSAL_TIME_OFFSET ( 1, 0, .AHEAD. ) ;
#232 = VECTOR ( 'NONE', #27, 1000.000000000000000 ) ;
#233 = CARTESIAN_POINT ( 'NONE',  ( 3.316907271900975425E-14, -1.163414459189985288E-15, 9.499999999999998224 ) ) ;
#234 = CARTESIAN_POINT ( 'NONE',  ( -3.848248301307262133E-31, 1.349783804395671573E-32, -1.102182119232617788E-16 ) ) ;
#235 = PERSON_AND_ORGANIZATION_ROLE ( 'creator' ) ;
#236 = EDGE_CURVE ( 'NONE', #40, #46, #166, .T. ) ;
#237 = CARTESIAN_POINT ( 'NONE',  ( 8.379555213223518475E-15, 6.120445834018399127E-33, 2.399999999999999911 ) ) ;
#238 = APPROVAL_STATUS ( 'not_yet_approved' ) ;
#239 = LINE ( 'NONE', #193, #217 ) ;
#240 = CC_DESIGN_DATE_AND_TIME_ASSIGNMENT ( #192, #95, ( #266 ) ) ;
#241 = APPROVAL_PERSON_ORGANIZATION ( #301, #130, #284 ) ;
#242 = FACE_OUTER_BOUND ( 'NONE', #10, .T. ) ;
#243 = VERTEX_POINT ( 'NONE', #176 ) ;
#244 = CLOSED_SHELL ( 'NONE', ( #148, #229, #90, #182 ) ) ;
#245 = EDGE_LOOP ( 'NONE', ( #152 ) ) ;
#246 = DIRECTION ( 'NONE',  ( -3.491481338843133355E-15, 1.224646799147353207E-16, -1.000000000000000000 ) ) ;
#247 = EDGE_LOOP ( 'NONE', ( #200, #300 ) ) ;
#248 = FACE_OUTER_BOUND ( 'NONE', #80, .T. ) ;
#249 = DIRECTION ( 'NONE',  ( 4.275831445896958607E-31, 1.000000000000000000, 1.224646799147353207E-16 ) ) ;
#250 = CIRCLE ( 'NONE', #127, 2.000000000000000888 ) ;
#251 = LOCAL_TIME ( 15, 55, 49.00000000000000000, #39 ) ;
#252 = EDGE_LOOP ( 'NONE', ( #134, #297, #69, #158 ) ) ;
#253 = APPROVAL_STATUS ( 'not_yet_approved' ) ;
#254 = EDGE_CURVE ( 'NONE', #257, #257, #281, .T. ) ;
#255 = EDGE_LOOP ( 'NONE', ( #223 ) ) ;
#256 = DIRECTION ( 'NONE',  ( 0.0000000000000000000, 1.000000000000000000, 0.0000000000000000000 ) ) ;
#257 = VERTEX_POINT ( 'NONE', #26 ) ;
#258 = AXIS2_PLACEMENT_3D ( 'NONE', #196, #83, #18 ) ;
#259 = CC_DESIGN_APPROVAL ( #211, ( #266 ) ) ;
#260 = LINE ( 'NONE', #20, #17 ) ;
#261 = ADVANCED_FACE ( 'NONE', ( #242 ), #52, .F. ) ;
#262 = ORIENTED_EDGE ( 'NONE', *, *, #254, .T. ) ;
#263 = PERSON_AND_ORGANIZATION ( #15, #77 ) ;
#264 = FACE_OUTER_BOUND ( 'NONE', #212, .T. ) ;
#265 = COORDINATED_UNIVERSAL_TIME_OFFSET ( 1, 0, .AHEAD. ) ;
#266 = PRODUCT_DEFINITION ( 'UNKNOWN', '', #150, #174 ) ;
#267 = LOCAL_TIME ( 15, 55, 49.00000000000000000, #64 ) ;
#268 = MANIFOLD_SOLID_BREP ( 'Corps-Déplacer/Copier1[2]', #244 ) ;
#269 = ORIENTED_EDGE ( 'NONE', *, *, #65, .T. ) ;
#270 = FACE_OUTER_BOUND ( 'NONE', #84, .T. ) ;
#271 = ORIENTED_EDGE ( 'NONE', *, *, #114, .F. ) ;
#272 = CONICAL_SURFACE ( 'NONE', #180, 0.9501647494353664403, 0.5235987755982989267 ) ;
#273 = DIRECTION ( 'NONE',  ( -3.491481338843133355E-15, 1.224646799147353207E-16, -1.000000000000000000 ) ) ;
#274 = PLANE ( 'NONE',  #112 ) ;
#275 = DIRECTION ( 'NONE',  ( 4.275831445896958607E-31, 1.000000000000000000, 1.224646799147352961E-16 ) ) ;
#276 = CARTESIAN_POINT ( 'NONE',  ( 8.379555213223518475E-15, 0.8161901532198032605, 2.399999999999999911 ) ) ;
#277 = DATE_AND_TIME ( #71, #251 ) ;
#278 = EDGE_CURVE ( 'NONE', #243, #40, #159, .T. ) ;
#279 = CARTESIAN_POINT ( 'NONE',  ( 0.0000000000000000000, 0.9000000000000000222, 0.0000000000000000000 ) ) ;
#280 =( NAMED_UNIT ( * ) SI_UNIT ( $, .STERADIAN. ) SOLID_ANGLE_UNIT ( ) );
#281 = CIRCLE ( 'NONE', #50, 0.8161901532198035936 ) ;
#282 = SECURITY_CLASSIFICATION ( '', '', #43 ) ;
#283 = ORIENTED_EDGE ( 'NONE', *, *, #93, .T. ) ;
#284 = APPROVAL_ROLE ( '' ) ;
#285 = FACE_BOUND ( 'NONE', #70, .T. ) ;
#286 = ADVANCED_FACE ( 'NONE', ( #9, #109 ), #88, .F. ) ;
#287 = CONICAL_SURFACE ( 'NONE', #173, 1.600000000000000977, 0.7853981633974512766 ) ;
#288 = ADVANCED_FACE ( 'NONE', ( #248, #219 ), #133, .T. ) ;
#289 = APPROVAL_PERSON_ORGANIZATION ( #67, #211, #2 ) ;
#290 = DIRECTION ( 'NONE',  ( 4.275831445896958607E-31, 1.000000000000000000, 1.224646799147353207E-16 ) ) ;
#291 = FACE_OUTER_BOUND ( 'NONE', #252, .T. ) ;
#292 = AXIS2_PLACEMENT_3D ( 'NONE', #237, #168, #123 ) ;
#293 =( GEOMETRIC_REPRESENTATION_CONTEXT ( 3 ) GLOBAL_UNCERTAINTY_ASSIGNED_CONTEXT ( ( #128 ) ) GLOBAL_UNIT_ASSIGNED_CONTEXT ( ( #45, #298, #280 ) ) REPRESENTATION_CONTEXT ( 'NONE', 'WORKASPACE' ) );
#294 = CARTESIAN_POINT ( 'NONE',  ( 0.0000000000000000000, 0.0000000000000000000, 0.0000000000000000000 ) ) ;
#295 = CARTESIAN_POINT ( 'NONE',  ( 0.0000000000000000000, 0.9000000000000000222, 0.0000000000000000000 ) ) ;
#296 = CALENDAR_DATE ( 2021, 3, 12 ) ;
#297 = ORIENTED_EDGE ( 'NONE', *, *, #93, .F. ) ;
#298 =( NAMED_UNIT ( * ) PLANE_ANGLE_UNIT ( ) SI_UNIT ( $, .RADIAN. ) );
#299 = CIRCLE ( 'NONE', #36, 0.9501647494353664403 ) ;
#300 = ORIENTED_EDGE ( 'NONE', *, *, #147, .T. ) ;
#301 = PERSON_AND_ORGANIZATION ( #15, #77 ) ;
ENDSEC;
END-ISO-10303-21;
