ISO-10303-21;
HEADER;
FILE_DESCRIPTION (( 'STEP AP203' ),
    '1' );
FILE_NAME ('53199.step',
    '2021-12-03T14:55:47',
    ( '' ),
    ( '' ),
    'SwSTEP 2.0',
    'SolidWorks 2019',
    '' );
FILE_SCHEMA (( 'CONFIG_CONTROL_DESIGN' ));
ENDSEC;

DATA;
#1 = EDGE_LOOP ( 'NONE', ( #152 ) ) ;
#2 = VECTOR ( 'NONE', #281, 1000.000000000000000 ) ;
#3 = CC_DESIGN_PERSON_AND_ORGANIZATION_ASSIGNMENT ( #269, #201, ( #183 ) ) ;
#4 = CARTESIAN_POINT ( 'NONE',  ( 4.364351673553917483E-15, -5.939544525587573230E-16, 1.250000000000000222 ) ) ;
#5 = APPROVAL_DATE_TIME ( #122, #204 ) ;
#6 = ORIENTED_EDGE ( 'NONE', *, *, #146, .F. ) ;
#7 = ORIENTED_EDGE ( 'NONE', *, *, #19, .F. ) ;
#8 = PRODUCT ( '53199', '53199', '', ( #256 ) ) ;
#9 = CC_DESIGN_PERSON_AND_ORGANIZATION_ASSIGNMENT ( #279, #185, ( #8 ) ) ;
#10 = AXIS2_PLACEMENT_3D ( 'NONE', #221, #87, #155 ) ;
#11 = ORIENTED_EDGE ( 'NONE', *, *, #43, .F. ) ;
#12 = PLANE ( 'NONE',  #41 ) ;
#13 = CARTESIAN_POINT ( 'NONE',  ( -4.275831445896957731E-31, -0.5000000000000000000, -1.224646799147353207E-16 ) ) ;
#14 = FACE_OUTER_BOUND ( 'NONE', #284, .T. ) ;
#15 = CC_DESIGN_SECURITY_CLASSIFICATION ( #271, ( #183 ) ) ;
#16 = DIRECTION ( 'NONE',  ( -3.491481338843133355E-15, 1.224646799147353207E-16, -1.000000000000000000 ) ) ;
#17 = APPROVAL_DATE_TIME ( #288, #84 ) ;
#18 = FACE_OUTER_BOUND ( 'NONE', #33, .T. ) ;
#19 = EDGE_CURVE ( 'NONE', #138, #138, #265, .T. ) ;
#20 = AXIS2_PLACEMENT_3D ( 'NONE', #287, #246, #60 ) ;
#21 = PERSON_AND_ORGANIZATION_ROLE ( 'classification_officer' ) ;
#22 = CARTESIAN_POINT ( 'NONE',  ( 8.728703347107833388E-14, -3.061616997868383043E-15, 25.00000000000000000 ) ) ;
#23 = SHAPE_DEFINITION_REPRESENTATION ( #75, #96 ) ;
#24 = VECTOR ( 'NONE', #67, 1000.000000000000227 ) ;
#25 = CARTESIAN_POINT ( 'NONE',  ( 4.364351673553917483E-15, -1.530808498934191817E-16, 1.250000000000000222 ) ) ;
#26 = VERTEX_POINT ( 'NONE', #130 ) ;
#27 = ORIENTED_EDGE ( 'NONE', *, *, #263, .T. ) ;
#28 = AXIS2_PLACEMENT_3D ( 'NONE', #235, #31, #98 ) ;
#29 = AXIS2_PLACEMENT_3D ( 'NONE', #184, #135, #70 ) ;
#30 = DIRECTION ( 'NONE',  ( 0.0000000000000000000, 0.0000000000000000000, 1.000000000000000000 ) ) ;
#31 = DIRECTION ( 'NONE',  ( -3.491481338843133355E-15, 1.224646799147353207E-16, -1.000000000000000000 ) ) ;
#32 = EDGE_LOOP ( 'NONE', ( #264 ) ) ;
#33 = EDGE_LOOP ( 'NONE', ( #6, #286, #11, #262 ) ) ;
#34 = VECTOR ( 'NONE', #218, 1000.000000000000227 ) ;
#35 = DIRECTION ( 'NONE',  ( -3.491481338843133355E-15, 1.224646799147353207E-16, -1.000000000000000000 ) ) ;
#36 = CARTESIAN_POINT ( 'NONE',  ( 4.364351673553917483E-15, 0.4563490381353141889, 1.250000000000000222 ) ) ;
#37 = DATE_AND_TIME ( #243, #64 ) ;
#38 = DIRECTION ( 'NONE',  ( 0.0000000000000000000, 1.000000000000000000, 0.0000000000000000000 ) ) ;
#39 = PERSON_AND_ORGANIZATION ( #276, #194 ) ;
#40 = CYLINDRICAL_SURFACE ( 'NONE', #20, 1.999999999999998224 ) ;
#41 = AXIS2_PLACEMENT_3D ( 'NONE', #158, #42, #88 ) ;
#42 = DIRECTION ( 'NONE',  ( -3.491481338843133355E-15, 1.224646799147353207E-16, -1.000000000000000000 ) ) ;
#43 = EDGE_CURVE ( 'NONE', #195, #125, #211, .T. ) ;
#44 = CALENDAR_DATE ( 2021, 3, 12 ) ;
#45 = DIRECTION ( 'NONE',  ( -3.491481338843133355E-15, 1.224646799147353207E-16, -1.000000000000000000 ) ) ;
#46 = LINE ( 'NONE', #112, #24 ) ;
#47 =( GEOMETRIC_REPRESENTATION_CONTEXT ( 3 ) GLOBAL_UNCERTAINTY_ASSIGNED_CONTEXT ( ( #236 ) ) GLOBAL_UNIT_ASSIGNED_CONTEXT ( ( #233, #259, #154 ) ) REPRESENTATION_CONTEXT ( 'NONE', 'WORKASPACE' ) );
#48 = PERSON_AND_ORGANIZATION ( #276, #194 ) ;
#49 = DIRECTION ( 'NONE',  ( 0.0000000000000000000, 1.000000000000000000, 0.0000000000000000000 ) ) ;
#50 = CLOSED_SHELL ( 'NONE', ( #92, #71, #191, #179, #141, #294, #123 ) ) ;
#51 = CIRCLE ( 'NONE', #252, 1.599999999999999201 ) ;
#52 = EDGE_LOOP ( 'NONE', ( #147 ) ) ;
#53 = APPROVAL_STATUS ( 'not_yet_approved' ) ;
#54 = CYLINDRICAL_SURFACE ( 'NONE', #28, 0.4563490381353143555 ) ;
#55 = CC_DESIGN_PERSON_AND_ORGANIZATION_ASSIGNMENT ( #278, #142, ( #160 ) ) ;
#56 = ORIENTED_EDGE ( 'NONE', *, *, #151, .F. ) ;
#57 = ORIENTED_EDGE ( 'NONE', *, *, #228, .T. ) ;
#58 = ORIENTED_EDGE ( 'NONE', *, *, #298, .T. ) ;
#59 = TOROIDAL_SURFACE ( 'NONE', #247, 1.456349038135314133, 0.9999999999999993339 ) ;
#60 = DIRECTION ( 'NONE',  ( 4.275831445896957731E-31, 1.000000000000000000, 1.224646799147353207E-16 ) ) ;
#61 = COORDINATED_UNIVERSAL_TIME_OFFSET ( 1, 0, .AHEAD. ) ;
#62 = CARTESIAN_POINT ( 'NONE',  ( 1.745740669421566678E-14, -6.123233995736766282E-16, 5.000000000000000000 ) ) ;
#63 = FACE_OUTER_BOUND ( 'NONE', #210, .T. ) ;
#64 = LOCAL_TIME ( 15, 55, 47.00000000000000000, #61 ) ;
#65 = CARTESIAN_POINT ( 'NONE',  ( 4.999147197584148524E-14, -1.753464796124733842E-15, 14.31812664145747682 ) ) ;
#66 = COORDINATED_UNIVERSAL_TIME_OFFSET ( 1, 0, .AHEAD. ) ;
#67 = DIRECTION ( 'NONE',  ( 3.489354422748178188E-15, 0.03489949670250164226, 0.9993908270190956511 ) ) ;
#68 = CARTESIAN_POINT ( 'NONE',  ( 4.364351673553917483E-15, 0.4563490381353141889, 1.250000000000000222 ) ) ;
#69 = CIRCLE ( 'NONE', #29, 1.999999999999999112 ) ;
#70 = DIRECTION ( 'NONE',  ( 0.0000000000000000000, 1.000000000000000000, 0.0000000000000000000 ) ) ;
#71 = ADVANCED_FACE ( 'NONE', ( #166, #260 ), #54, .T. ) ;
#72 = AXIS2_PLACEMENT_3D ( 'NONE', #22, #224, #250 ) ;
#73 = DESIGN_CONTEXT ( 'detailed design', #291, 'design' ) ;
#74 = ORIENTED_EDGE ( 'NONE', *, *, #274, .F. ) ;
#75 = PRODUCT_DEFINITION_SHAPE ( 'NONE', 'NONE',  #160 ) ;
#76 = FACE_OUTER_BOUND ( 'NONE', #81, .T. ) ;
#77 = CONICAL_SURFACE ( 'NONE', #72, 1.599999999999999201, 0.7853981633974469467 ) ;
#78 = AXIS2_PLACEMENT_3D ( 'NONE', #266, #103, #175 ) ;
#79 = CALENDAR_DATE ( 2021, 3, 12 ) ;
#80 = EDGE_LOOP ( 'NONE', ( #7 ) ) ;
#81 = EDGE_LOOP ( 'NONE', ( #150 ) ) ;
#82 = CARTESIAN_POINT ( 'NONE',  ( 8.728703347107833388E-14, 1.199807826129481023E-32, 25.00000000000000000 ) ) ;
#83 = APPROVAL_PERSON_ORGANIZATION ( #48, #84, #139 ) ;
#84 = APPROVAL ( #178, 'UNSPECIFIED' ) ;
#85 = CARTESIAN_POINT ( 'NONE',  ( 1.745740669421566678E-14, -6.505213034913026604E-16, 5.000000000000000000 ) ) ;
#86 = AXIS2_PLACEMENT_3D ( 'NONE', #161, #93, #49 ) ;
#87 = DIRECTION ( 'NONE',  ( -3.491481338843133355E-15, 1.224646799147353207E-16, -1.000000000000000000 ) ) ;
#88 = DIRECTION ( 'NONE',  ( 4.275831445896958607E-31, 1.000000000000000000, 1.224646799147353207E-16 ) ) ;
#89 = DATE_AND_TIME ( #44, #143 ) ;
#90 = VERTEX_POINT ( 'NONE', #115 ) ;
#91 = AXIS2_PLACEMENT_3D ( 'NONE', #270, #215, #134 ) ;
#92 = ADVANCED_FACE ( 'NONE', ( #76 ), #167, .F. ) ;
#93 = DIRECTION ( 'NONE',  ( -3.491481338843133355E-15, 1.224646799147353207E-16, -1.000000000000000000 ) ) ;
#94 = ORIENTED_EDGE ( 'NONE', *, *, #285, .F. ) ;
#95 = ORIENTED_EDGE ( 'NONE', *, *, #151, .T. ) ;
#96 = ADVANCED_BREP_SHAPE_REPRESENTATION ( '53199', ( #300, #202, #105 ), #47 ) ;
#97 = CALENDAR_DATE ( 2021, 3, 12 ) ;
#98 = DIRECTION ( 'NONE',  ( 4.275831445896957731E-31, 1.000000000000000000, 1.224646799147353454E-16 ) ) ;
#99 = EDGE_LOOP ( 'NONE', ( #27 ) ) ;
#100 = LOCAL_TIME ( 15, 55, 47.00000000000000000, #213 ) ;
#101 = EDGE_LOOP ( 'NONE', ( #95, #118 ) ) ;
#102 = APPROVAL ( #237, 'UNSPECIFIED' ) ;
#103 = DIRECTION ( 'NONE',  ( -3.491481338843133355E-15, 1.224646799147353207E-16, -1.000000000000000000 ) ) ;
#104 = DIRECTION ( 'NONE',  ( 3.491481338843133355E-15, -1.224646799147353207E-16, 1.000000000000000000 ) ) ;
#105 = AXIS2_PLACEMENT_3D ( 'NONE', #140, #30, #257 ) ;
#106 = PERSON_AND_ORGANIZATION ( #276, #194 ) ;
#107 = PLANE ( 'NONE',  #91 ) ;
#108 = FACE_OUTER_BOUND ( 'NONE', #80, .T. ) ;
#109 = DIRECTION ( 'NONE',  ( -3.491481338843133355E-15, 1.224646799147353207E-16, -1.000000000000000000 ) ) ;
#110 = SECURITY_CLASSIFICATION_LEVEL ( 'unclassified' ) ;
#111 = CC_DESIGN_APPROVAL ( #84, ( #271 ) ) ;
#112 = CARTESIAN_POINT ( 'NONE',  ( 4.999147197584148524E-14, -1.753464796124733842E-15, 14.31812664145747682 ) ) ;
#113 = EDGE_CURVE ( 'NONE', #207, #207, #198, .T. ) ;
#114 = DIRECTION ( 'NONE',  ( -3.491481338843133355E-15, 1.224646799147353207E-16, -1.000000000000000000 ) ) ;
#115 = CARTESIAN_POINT ( 'NONE',  ( 1.745740669421566678E-14, 0.4563490381353138003, 5.000000000000000000 ) ) ;
#116 = COORDINATED_UNIVERSAL_TIME_OFFSET ( 1, 0, .AHEAD. ) ;
#117 = ADVANCED_FACE ( 'NONE', ( #14 ), #225, .T. ) ;
#118 = ORIENTED_EDGE ( 'NONE', *, *, #146, .T. ) ;
#119 = ORIENTED_EDGE ( 'NONE', *, *, #169, .T. ) ;
#120 = AXIS2_PLACEMENT_3D ( 'NONE', #205, #244, #242 ) ;
#121 = LOCAL_TIME ( 15, 55, 47.00000000000000000, #66 ) ;
#122 = DATE_AND_TIME ( #97, #206 ) ;
#123 = ADVANCED_FACE ( 'NONE', ( #131 ), #223, .F. ) ;
#124 = EDGE_LOOP ( 'NONE', ( #187 ) ) ;
#125 = VERTEX_POINT ( 'NONE', #36 ) ;
#126 = ORIENTED_EDGE ( 'NONE', *, *, #43, .T. ) ;
#127 = ADVANCED_FACE ( 'NONE', ( #18 ), #107, .T. ) ;
#128 = APPROVAL_PERSON_ORGANIZATION ( #188, #204, #230 ) ;
#129 = CARTESIAN_POINT ( 'NONE',  ( 8.728703347107833388E-14, 1.599999999999996092, 25.00000000000000000 ) ) ;
#130 = CARTESIAN_POINT ( 'NONE',  ( 8.589044093554108054E-14, 1.999999999999996225, 24.60000000000000142 ) ) ;
#131 = FACE_OUTER_BOUND ( 'NONE', #1, .T. ) ;
#132 = AXIS2_PLACEMENT_3D ( 'NONE', #255, #296, #231 ) ;
#133 = DIRECTION ( 'NONE',  ( -4.275831445896958607E-31, -1.000000000000000000, -1.224646799147353207E-16 ) ) ;
#134 = DIRECTION ( 'NONE',  ( -3.491481338843133355E-15, 0.0000000000000000000, -1.000000000000000000 ) ) ;
#135 = DIRECTION ( 'NONE',  ( -3.491481338843133355E-15, 1.224646799147353207E-16, -1.000000000000000000 ) ) ;
#136 = CC_DESIGN_DATE_AND_TIME_ASSIGNMENT ( #89, #181, ( #271 ) ) ;
#137 = AXIS2_PLACEMENT_3D ( 'NONE', #164, #258, #234 ) ;
#138 = VERTEX_POINT ( 'NONE', #253 ) ;
#139 = APPROVAL_ROLE ( '' ) ;
#140 = CARTESIAN_POINT ( 'NONE',  ( 0.0000000000000000000, 0.0000000000000000000, 0.0000000000000000000 ) ) ;
#141 = ADVANCED_FACE ( 'NONE', ( #108, #63 ), #40, .T. ) ;
#142 = PERSON_AND_ORGANIZATION_ROLE ( 'creator' ) ;
#143 = LOCAL_TIME ( 15, 55, 47.00000000000000000, #267 ) ;
#144 = APPLICATION_PROTOCOL_DEFINITION ( 'international standard', 'config_control_design', 1994, #291 ) ;
#145 = VERTEX_POINT ( 'NONE', #13 ) ;
#146 = EDGE_CURVE ( 'NONE', #282, #145, #292, .T. ) ;
#147 = ORIENTED_EDGE ( 'NONE', *, *, #169, .F. ) ;
#148 = CC_DESIGN_APPROVAL ( #204, ( #160 ) ) ;
#149 = APPLICATION_CONTEXT ( 'configuration controlled 3d designs of mechanical parts and assemblies' ) ;
#150 = ORIENTED_EDGE ( 'NONE', *, *, #113, .T. ) ;
#151 = EDGE_CURVE ( 'NONE', #145, #282, #214, .T. ) ;
#152 = ORIENTED_EDGE ( 'NONE', *, *, #263, .F. ) ;
#153 = CARTESIAN_POINT ( 'NONE',  ( 1.920314736363723976E-14, -6.735557395310443995E-16, 5.500000000000001776 ) ) ;
#154 =( NAMED_UNIT ( * ) SI_UNIT ( $, .STERADIAN. ) SOLID_ANGLE_UNIT ( ) );
#155 = DIRECTION ( 'NONE',  ( 4.275831445896958607E-31, 1.000000000000000000, 1.224646799147353207E-16 ) ) ;
#156 = DIRECTION ( 'NONE',  ( 4.275831445896958607E-31, 1.000000000000000000, 1.224646799147353207E-16 ) ) ;
#157 = AXIS2_PLACEMENT_3D ( 'NONE', #153, #104, #203 ) ;
#158 = CARTESIAN_POINT ( 'NONE',  ( -1.068957861474239433E-31, 3.749399456654644020E-33, -3.061616997868383018E-17 ) ) ;
#159 = DIRECTION ( 'NONE',  ( -3.491481338843133355E-15, 1.224646799147353207E-16, -1.000000000000000000 ) ) ;
#160 = PRODUCT_DEFINITION ( 'UNKNOWN', '', #183, #73 ) ;
#161 = CARTESIAN_POINT ( 'NONE',  ( 1.920314736363723976E-14, -6.735557395310443995E-16, 5.500000000000001776 ) ) ;
#162 = FACE_OUTER_BOUND ( 'NONE', #238, .T. ) ;
#163 = CIRCLE ( 'NONE', #283, 0.4563490381353143555 ) ;
#164 = CARTESIAN_POINT ( 'NONE',  ( 2.772805674209906595E-14, -9.725693091356788997E-16, 7.941631087533314926 ) ) ;
#165 = CC_DESIGN_DATE_AND_TIME_ASSIGNMENT ( #37, #171, ( #160 ) ) ;
#166 = FACE_OUTER_BOUND ( 'NONE', #172, .T. ) ;
#167 = PLANE ( 'NONE',  #120 ) ;
#168 = CC_DESIGN_APPROVAL ( #102, ( #183 ) ) ;
#169 = EDGE_CURVE ( 'NONE', #90, #90, #174, .T. ) ;
#170 = EDGE_LOOP ( 'NONE', ( #240 ) ) ;
#171 = DATE_TIME_ROLE ( 'creation_date' ) ;
#172 = EDGE_LOOP ( 'NONE', ( #119 ) ) ;
#173 = FACE_BOUND ( 'NONE', #193, .T. ) ;
#174 = CIRCLE ( 'NONE', #208, 0.4563490381353144110 ) ;
#175 = DIRECTION ( 'NONE',  ( 0.0000000000000000000, 1.000000000000000000, 0.0000000000000000000 ) ) ;
#176 = PERSON_AND_ORGANIZATION_ROLE ( 'creator' ) ;
#177 = CARTESIAN_POINT ( 'NONE',  ( 4.364351673553917483E-15, -0.4563490381353145775, 1.250000000000000222 ) ) ;
#178 = APPROVAL_STATUS ( 'not_yet_approved' ) ;
#179 = ADVANCED_FACE ( 'NONE', ( #289, #173 ), #261, .T. ) ;
#180 = CARTESIAN_POINT ( 'NONE',  ( 0.0000000000000000000, 0.5000000000000000000, 0.0000000000000000000 ) ) ;
#181 = DATE_TIME_ROLE ( 'classification_date' ) ;
#182 = CARTESIAN_POINT ( 'NONE',  ( 0.0000000000000000000, 0.5000000000000000000, 0.0000000000000000000 ) ) ;
#183 = PRODUCT_DEFINITION_FORMATION_WITH_SPECIFIED_SOURCE ( 'ANY', '', #8, .NOT_KNOWN. ) ;
#184 = CARTESIAN_POINT ( 'NONE',  ( 8.589044093554108054E-14, -3.012631125902488826E-15, 24.60000000000000142 ) ) ;
#185 = PERSON_AND_ORGANIZATION_ROLE ( 'design_owner' ) ;
#186 = EDGE_CURVE ( 'NONE', #125, #282, #200, .T. ) ;
#187 = ORIENTED_EDGE ( 'NONE', *, *, #19, .T. ) ;
#188 = PERSON_AND_ORGANIZATION ( #276, #194 ) ;
#189 = EDGE_LOOP ( 'NONE', ( #190, #126 ) ) ;
#190 = ORIENTED_EDGE ( 'NONE', *, *, #228, .F. ) ;
#191 = ADVANCED_FACE ( 'NONE', ( #290, #197 ), #59, .F. ) ;
#192 = APPROVAL_ROLE ( '' ) ;
#193 = EDGE_LOOP ( 'NONE', ( #94 ) ) ;
#194 = ORGANIZATION ( 'UNSPECIFIED', 'UNSPECIFIED', '' ) ;
#195 = VERTEX_POINT ( 'NONE', #177 ) ;
#196 = DIRECTION ( 'NONE',  ( 4.275831445896958607E-31, 1.000000000000000000, 1.224646799147353207E-16 ) ) ;
#197 = FACE_OUTER_BOUND ( 'NONE', #52, .T. ) ;
#198 = CIRCLE ( 'NONE', #78, 0.4563490381353143555 ) ;
#199 = CARTESIAN_POINT ( 'NONE',  ( 1.920314736363723976E-14, 0.5903236343508765360, 5.500000000000001776 ) ) ;
#200 = LINE ( 'NONE', #65, #34 ) ;
#201 = PERSON_AND_ORGANIZATION_ROLE ( 'design_supplier' ) ;
#202 = MANIFOLD_SOLID_BREP ( 'Corps-Déplacer/Copier1[2]', #293 ) ;
#203 = DIRECTION ( 'NONE',  ( 0.0000000000000000000, -1.000000000000000000, 0.0000000000000000000 ) ) ;
#204 = APPROVAL ( #53, 'UNSPECIFIED' ) ;
#205 = CARTESIAN_POINT ( 'NONE',  ( 4.364351673553917483E-15, -5.939544525587573230E-16, 1.250000000000000222 ) ) ;
#206 = LOCAL_TIME ( 15, 55, 47.00000000000000000, #116 ) ;
#207 = VERTEX_POINT ( 'NONE', #68 ) ;
#208 = AXIS2_PLACEMENT_3D ( 'NONE', #62, #16, #38 ) ;
#209 = VERTEX_POINT ( 'NONE', #199 ) ;
#210 = EDGE_LOOP ( 'NONE', ( #280 ) ) ;
#211 = LINE ( 'NONE', #4, #2 ) ;
#212 = ORIENTED_EDGE ( 'NONE', *, *, #186, .T. ) ;
#213 = COORDINATED_UNIVERSAL_TIME_OFFSET ( 1, 0, .AHEAD. ) ;
#214 = CIRCLE ( 'NONE', #10, 0.5000000000000000000 ) ;
#215 = DIRECTION ( 'NONE',  ( 1.000000000000000000, 0.0000000000000000000, -3.491481338843133355E-15 ) ) ;
#216 = CC_DESIGN_PERSON_AND_ORGANIZATION_ASSIGNMENT ( #227, #176, ( #183 ) ) ;
#217 = CARTESIAN_POINT ( 'NONE',  ( -2.137915722948478865E-31, 7.498798913309288039E-33, -6.123233995736766036E-17 ) ) ;
#218 = DIRECTION ( 'NONE',  ( -3.489354422748178188E-15, 0.03489949670250189206, -0.9993908270190956511 ) ) ;
#219 = AXIS2_PLACEMENT_3D ( 'NONE', #82, #109, #156 ) ;
#220 = APPLICATION_PROTOCOL_DEFINITION ( 'international standard', 'config_control_design', 1994, #149 ) ;
#221 = CARTESIAN_POINT ( 'NONE',  ( -2.137915722948478865E-31, 7.498798913309288039E-33, -6.123233995736766036E-17 ) ) ;
#222 = ADVANCED_FACE ( 'NONE', ( #268 ), #12, .T. ) ;
#223 = PLANE ( 'NONE',  #219 ) ;
#224 = DIRECTION ( 'NONE',  ( -3.491481338843133355E-15, 1.224646799147353207E-16, -1.000000000000000000 ) ) ;
#225 = CONICAL_SURFACE ( 'NONE', #232, 0.5000000000000000000, 0.03490658503988738892 ) ;
#226 = FACE_OUTER_BOUND ( 'NONE', #189, .T. ) ;
#227 = PERSON_AND_ORGANIZATION ( #276, #194 ) ;
#228 = EDGE_CURVE ( 'NONE', #195, #125, #163, .T. ) ;
#229 = DIRECTION ( 'NONE',  ( 0.0000000000000000000, 1.000000000000000000, 0.0000000000000000000 ) ) ;
#230 = APPROVAL_ROLE ( '' ) ;
#231 = DIRECTION ( 'NONE',  ( -4.275831445896958607E-31, -1.000000000000000000, -1.224646799147353207E-16 ) ) ;
#232 = AXIS2_PLACEMENT_3D ( 'NONE', #217, #35, #273 ) ;
#233 =( LENGTH_UNIT ( ) NAMED_UNIT ( * ) SI_UNIT ( .MILLI., .METRE. ) );
#234 = DIRECTION ( 'NONE',  ( 0.0000000000000000000, 1.000000000000000000, 0.0000000000000000000 ) ) ;
#235 = CARTESIAN_POINT ( 'NONE',  ( 0.0000000000000000000, 0.0000000000000000000, 0.0000000000000000000 ) ) ;
#236 = UNCERTAINTY_MEASURE_WITH_UNIT (LENGTH_MEASURE( 1.000000000000000082E-05 ), #233, 'distance_accuracy_value', 'NONE');
#237 = APPROVAL_STATUS ( 'not_yet_approved' ) ;
#238 = EDGE_LOOP ( 'NONE', ( #74 ) ) ;
#239 = DATE_AND_TIME ( #79, #100 ) ;
#240 = ORIENTED_EDGE ( 'NONE', *, *, #285, .T. ) ;
#241 = APPROVAL_PERSON_ORGANIZATION ( #106, #102, #192 ) ;
#242 = DIRECTION ( 'NONE',  ( -4.275831445896958607E-31, -1.000000000000000000, -1.224646799147353207E-16 ) ) ;
#243 = CALENDAR_DATE ( 2021, 3, 12 ) ;
#244 = DIRECTION ( 'NONE',  ( 3.491481338843133355E-15, -1.224646799147353207E-16, 1.000000000000000000 ) ) ;
#245 = CC_DESIGN_PERSON_AND_ORGANIZATION_ASSIGNMENT ( #39, #21, ( #271 ) ) ;
#246 = DIRECTION ( 'NONE',  ( -3.491481338843133355E-15, 1.224646799147353207E-16, -1.000000000000000000 ) ) ;
#247 = AXIS2_PLACEMENT_3D ( 'NONE', #85, #159, #196 ) ;
#248 = VECTOR ( 'NONE', #133, 1000.000000000000000 ) ;
#249 = CARTESIAN_POINT ( 'NONE',  ( 8.728703347107833388E-14, -3.061616997868383043E-15, 25.00000000000000000 ) ) ;
#250 = DIRECTION ( 'NONE',  ( 0.0000000000000000000, 1.000000000000000000, 0.0000000000000000000 ) ) ;
#251 = PRODUCT_RELATED_PRODUCT_CATEGORY ( 'detail', '', ( #8 ) ) ;
#252 = AXIS2_PLACEMENT_3D ( 'NONE', #249, #45, #301 ) ;
#253 = CARTESIAN_POINT ( 'NONE',  ( 2.772805674209906595E-14, 1.999999999999997113, 7.941631087533314926 ) ) ;
#254 = ADVANCED_FACE ( 'NONE', ( #226 ), #297, .T. ) ;
#255 = CARTESIAN_POINT ( 'NONE',  ( 4.364351673553917483E-15, -5.939544525587573230E-16, 1.250000000000000222 ) ) ;
#256 = MECHANICAL_CONTEXT ( 'NONE', #149, 'mechanical' ) ;
#257 = DIRECTION ( 'NONE',  ( 1.000000000000000000, 0.0000000000000000000, 0.0000000000000000000 ) ) ;
#258 = DIRECTION ( 'NONE',  ( -3.491481338843133355E-15, 1.224646799147353207E-16, -1.000000000000000000 ) ) ;
#259 =( NAMED_UNIT ( * ) PLANE_ANGLE_UNIT ( ) SI_UNIT ( $, .RADIAN. ) );
#260 = FACE_OUTER_BOUND ( 'NONE', #32, .T. ) ;
#261 = CONICAL_SURFACE ( 'NONE', #157, 0.5903236343508772022, 0.5235987755982999259 ) ;
#262 = ORIENTED_EDGE ( 'NONE', *, *, #298, .F. ) ;
#263 = EDGE_CURVE ( 'NONE', #277, #277, #51, .T. ) ;
#264 = ORIENTED_EDGE ( 'NONE', *, *, #113, .F. ) ;
#265 = CIRCLE ( 'NONE', #137, 1.999999999999997780 ) ;
#266 = CARTESIAN_POINT ( 'NONE',  ( 4.364351673553917483E-15, -1.530808498934191817E-16, 1.250000000000000222 ) ) ;
#267 = COORDINATED_UNIVERSAL_TIME_OFFSET ( 1, 0, .AHEAD. ) ;
#268 = FACE_OUTER_BOUND ( 'NONE', #101, .T. ) ;
#269 = PERSON_AND_ORGANIZATION ( #276, #194 ) ;
#270 = CARTESIAN_POINT ( 'NONE',  ( 0.0000000000000000000, 0.0000000000000000000, 0.0000000000000000000 ) ) ;
#271 = SECURITY_CLASSIFICATION ( '', '', #110 ) ;
#272 = CALENDAR_DATE ( 2021, 3, 12 ) ;
#273 = DIRECTION ( 'NONE',  ( 4.275831445896958607E-31, 1.000000000000000000, 1.224646799147353207E-16 ) ) ;
#274 = EDGE_CURVE ( 'NONE', #26, #26, #69, .T. ) ;
#275 = FACE_BOUND ( 'NONE', #99, .T. ) ;
#276 = PERSON ( 'UNSPECIFIED', 'UNSPECIFIED', 'UNSPECIFIED', ('UNSPECIFIED'), ('UNSPECIFIED'), ('UNSPECIFIED') ) ;
#277 = VERTEX_POINT ( 'NONE', #129 ) ;
#278 = PERSON_AND_ORGANIZATION ( #276, #194 ) ;
#279 = PERSON_AND_ORGANIZATION ( #276, #194 ) ;
#280 = ORIENTED_EDGE ( 'NONE', *, *, #274, .T. ) ;
#281 = DIRECTION ( 'NONE',  ( 4.275831445896958607E-31, 1.000000000000000000, 1.224646799147353207E-16 ) ) ;
#282 = VERTEX_POINT ( 'NONE', #182 ) ;
#283 = AXIS2_PLACEMENT_3D ( 'NONE', #25, #114, #229 ) ;
#284 = EDGE_LOOP ( 'NONE', ( #56, #58, #57, #212 ) ) ;
#285 = EDGE_CURVE ( 'NONE', #209, #209, #299, .T. ) ;
#286 = ORIENTED_EDGE ( 'NONE', *, *, #186, .F. ) ;
#287 = CARTESIAN_POINT ( 'NONE',  ( 0.0000000000000000000, 0.0000000000000000000, 0.0000000000000000000 ) ) ;
#288 = DATE_AND_TIME ( #272, #121 ) ;
#289 = FACE_OUTER_BOUND ( 'NONE', #124, .T. ) ;
#290 = FACE_OUTER_BOUND ( 'NONE', #170, .T. ) ;
#291 = APPLICATION_CONTEXT ( 'configuration controlled 3d designs of mechanical parts and assemblies' ) ;
#292 = LINE ( 'NONE', #180, #248 ) ;
#293 = CLOSED_SHELL ( 'NONE', ( #222, #117, #254, #127 ) ) ;
#294 = ADVANCED_FACE ( 'NONE', ( #162, #275 ), #77, .T. ) ;
#295 = APPROVAL_DATE_TIME ( #239, #102 ) ;
#296 = DIRECTION ( 'NONE',  ( 3.491481338843133355E-15, -1.224646799147353207E-16, 1.000000000000000000 ) ) ;
#297 = PLANE ( 'NONE',  #132 ) ;
#298 = EDGE_CURVE ( 'NONE', #145, #195, #46, .T. ) ;
#299 = CIRCLE ( 'NONE', #86, 0.5903236343508772022 ) ;
#300 = MANIFOLD_SOLID_BREP ( 'Corps-Déplacer/Copier1[1]', #50 ) ;
#301 = DIRECTION ( 'NONE',  ( 0.0000000000000000000, 1.000000000000000000, 0.0000000000000000000 ) ) ;
ENDSEC;
END-ISO-10303-21;
