ISO-10303-21;
HEADER;
FILE_DESCRIPTION (( 'STEP AP203' ),
    '1' );
FILE_NAME ('53198.step',
    '2021-12-03T14:55:47',
    ( '' ),
    ( '' ),
    'SwSTEP 2.0',
    'SolidWorks 2019',
    '' );
FILE_SCHEMA (( 'CONFIG_CONTROL_DESIGN' ));
ENDSEC;

DATA;
#1 = CARTESIAN_POINT ( 'NONE',  ( 1.396592535537253342E-14, 0.3615871535590761132, 4.000000000000000000 ) ) ;
#2 = CIRCLE ( 'NONE', #172, 0.4000000000000000222 ) ;
#3 = CC_DESIGN_DATE_AND_TIME_ASSIGNMENT ( #15, #216, ( #67 ) ) ;
#4 = CARTESIAN_POINT ( 'NONE',  ( 2.480964061044105574E-14, 1.999999999999997113, 7.105763486240335602 ) ) ;
#5 = PLANE ( 'NONE',  #48 ) ;
#6 = AXIS2_PLACEMENT_3D ( 'NONE', #73, #158, #202 ) ;
#7 = VERTEX_POINT ( 'NONE', #122 ) ;
#8 = ORIENTED_EDGE ( 'NONE', *, *, #157, .F. ) ;
#9 = DATE_TIME_ROLE ( 'classification_date' ) ;
#10 = EDGE_LOOP ( 'NONE', ( #8 ) ) ;
#11 = DIRECTION ( 'NONE',  ( -3.491481338843133355E-15, 1.224646799147353207E-16, -1.000000000000000000 ) ) ;
#12 = VECTOR ( 'NONE', #47, 1000.000000000000000 ) ;
#13 = DATE_AND_TIME ( #224, #19 ) ;
#14 = ADVANCED_FACE ( 'NONE', ( #173, #130 ), #281, .T. ) ;
#15 = DATE_AND_TIME ( #244, #126 ) ;
#16 = ORIENTED_EDGE ( 'NONE', *, *, #280, .T. ) ;
#17 = APPROVAL_DATE_TIME ( #13, #254 ) ;
#18 = ORIENTED_EDGE ( 'NONE', *, *, #22, .T. ) ;
#19 = LOCAL_TIME ( 15, 55, 47.00000000000000000, #40 ) ;
#20 = ORIENTED_EDGE ( 'NONE', *, *, #233, .T. ) ;
#21 = DIRECTION ( 'NONE',  ( 0.0000000000000000000, 1.000000000000000000, 0.0000000000000000000 ) ) ;
#22 = EDGE_CURVE ( 'NONE', #211, #211, #114, .T. ) ;
#23 = DESIGN_CONTEXT ( 'detailed design', #239, 'design' ) ;
#24 = FACE_OUTER_BOUND ( 'NONE', #290, .T. ) ;
#25 = FACE_OUTER_BOUND ( 'NONE', #38, .T. ) ;
#26 = CARTESIAN_POINT ( 'NONE',  ( 0.0000000000000000000, 0.0000000000000000000, 0.0000000000000000000 ) ) ;
#27 = LOCAL_TIME ( 15, 55, 47.00000000000000000, #148 ) ;
#28 = DIRECTION ( 'NONE',  ( -3.491481338843133355E-15, 1.224646799147353207E-16, -1.000000000000000000 ) ) ;
#29 = DIRECTION ( 'NONE',  ( 0.0000000000000000000, 0.0000000000000000000, 1.000000000000000000 ) ) ;
#30 = DIRECTION ( 'NONE',  ( 4.275831445896958607E-31, 1.000000000000000000, 1.224646799147353207E-16 ) ) ;
#31 = ORIENTED_EDGE ( 'NONE', *, *, #150, .T. ) ;
#32 = ADVANCED_FACE ( 'NONE', ( #243 ), #263, .T. ) ;
#33 = CIRCLE ( 'NONE', #178, 1.999999999999997780 ) ;
#34 = CALENDAR_DATE ( 2021, 3, 12 ) ;
#35 = ORIENTED_EDGE ( 'NONE', *, *, #117, .T. ) ;
#36 = CC_DESIGN_PERSON_AND_ORGANIZATION_ASSIGNMENT ( #104, #197, ( #204 ) ) ;
#37 = PERSON_AND_ORGANIZATION ( #119, #74 ) ;
#38 = EDGE_LOOP ( 'NONE', ( #18 ) ) ;
#39 = VECTOR ( 'NONE', #265, 1000.000000000000227 ) ;
#40 = COORDINATED_UNIVERSAL_TIME_OFFSET ( 1, 0, .AHEAD. ) ;
#41 = DIRECTION ( 'NONE',  ( -4.275831445896958607E-31, -1.000000000000000000, -1.224646799147353207E-16 ) ) ;
#42 = DIRECTION ( 'NONE',  ( -3.491481338843133355E-15, 1.224646799147353207E-16, -1.000000000000000000 ) ) ;
#43 = CARTESIAN_POINT ( 'NONE',  ( 2.480964061044105574E-14, -8.702050508922363915E-16, 7.105763486240335602 ) ) ;
#44 = CC_DESIGN_PERSON_AND_ORGANIZATION_ASSIGNMENT ( #83, #194, ( #204 ) ) ;
#45 = AXIS2_PLACEMENT_3D ( 'NONE', #94, #189, #97 ) ;
#46 = DIRECTION ( 'NONE',  ( 0.0000000000000000000, 1.000000000000000000, 0.0000000000000000000 ) ) ;
#47 = DIRECTION ( 'NONE',  ( -4.275831445896958607E-31, -1.000000000000000000, -1.224646799147353207E-16 ) ) ;
#48 = AXIS2_PLACEMENT_3D ( 'NONE', #26, #118, #234 ) ;
#49 = DIRECTION ( 'NONE',  ( 3.491481338843133355E-15, -1.224646799147353207E-16, 1.000000000000000000 ) ) ;
#50 = ADVANCED_FACE ( 'NONE', ( #128 ), #199, .T. ) ;
#51 = APPROVAL_ROLE ( '' ) ;
#52 = ORIENTED_EDGE ( 'NONE', *, *, #168, .F. ) ;
#53 = FACE_OUTER_BOUND ( 'NONE', #75, .T. ) ;
#54 = ADVANCED_FACE ( 'NONE', ( #81, #60 ), #131, .T. ) ;
#55 = DIRECTION ( 'NONE',  ( -3.491481338843133355E-15, 1.224646799147353207E-16, -1.000000000000000000 ) ) ;
#56 = ORIENTED_EDGE ( 'NONE', *, *, #213, .T. ) ;
#57 = AXIS2_PLACEMENT_3D ( 'NONE', #295, #251, #21 ) ;
#58 = DATE_AND_TIME ( #34, #253 ) ;
#59 = APPROVAL_STATUS ( 'not_yet_approved' ) ;
#60 = FACE_OUTER_BOUND ( 'NONE', #124, .T. ) ;
#61 = DIRECTION ( 'NONE',  ( 0.0000000000000000000, 1.000000000000000000, 0.0000000000000000000 ) ) ;
#62 = AXIS2_PLACEMENT_3D ( 'NONE', #105, #271, #41 ) ;
#63 = AXIS2_PLACEMENT_3D ( 'NONE', #208, #55, #191 ) ;
#64 = PERSON_AND_ORGANIZATION ( #119, #74 ) ;
#65 = DIRECTION ( 'NONE',  ( -3.491481338843133355E-15, 1.224646799147353207E-16, -1.000000000000000000 ) ) ;
#66 = SHAPE_DEFINITION_REPRESENTATION ( #203, #70 ) ;
#67 = PRODUCT_DEFINITION ( 'UNKNOWN', '', #204, #23 ) ;
#68 = CARTESIAN_POINT ( 'NONE',  ( 3.840629472727448269E-15, -6.596597130153312817E-16, 1.100000000000000311 ) ) ;
#69 = CARTESIAN_POINT ( 'NONE',  ( 1.396592535537253342E-14, -4.336808689942017736E-16, 4.000000000000000000 ) ) ;
#70 = ADVANCED_BREP_SHAPE_REPRESENTATION ( '53198', ( #279, #183, #209 ), #235 ) ;
#71 = UNCERTAINTY_MEASURE_WITH_UNIT (LENGTH_MEASURE( 1.000000000000000082E-05 ), #160, 'distance_accuracy_value', 'NONE');
#72 = DIRECTION ( 'NONE',  ( -3.491481338843133355E-15, 1.224646799147353207E-16, -1.000000000000000000 ) ) ;
#73 = CARTESIAN_POINT ( 'NONE',  ( 8.728703347107833388E-14, 1.199807826129481023E-32, 25.00000000000000000 ) ) ;
#74 = ORGANIZATION ( 'UNSPECIFIED', 'UNSPECIFIED', '' ) ;
#75 = EDGE_LOOP ( 'NONE', ( #127, #35, #31, #167 ) ) ;
#76 = APPLICATION_PROTOCOL_DEFINITION ( 'international standard', 'config_control_design', 1994, #239 ) ;
#77 = DIRECTION ( 'NONE',  ( 4.275831445896958607E-31, 1.000000000000000000, 1.224646799147353207E-16 ) ) ;
#78 = EDGE_LOOP ( 'NONE', ( #16, #225 ) ) ;
#79 = VERTEX_POINT ( 'NONE', #4 ) ;
#80 = ORIENTED_EDGE ( 'NONE', *, *, #213, .F. ) ;
#81 = FACE_OUTER_BOUND ( 'NONE', #217, .T. ) ;
#82 = VERTEX_POINT ( 'NONE', #86 ) ;
#83 = PERSON_AND_ORGANIZATION ( #119, #74 ) ;
#84 = CARTESIAN_POINT ( 'NONE',  ( -8.551662891793917432E-32, 2.999519565323715558E-33, -2.449293598294706538E-17 ) ) ;
#85 = AXIS2_PLACEMENT_3D ( 'NONE', #288, #42, #102 ) ;
#86 = CARTESIAN_POINT ( 'NONE',  ( 3.840629472727448269E-15, 0.3615871535590764463, 1.100000000000000311 ) ) ;
#87 = DIRECTION ( 'NONE',  ( 4.275831445896958607E-31, 1.000000000000000000, 1.224646799147353207E-16 ) ) ;
#88 = EDGE_CURVE ( 'NONE', #79, #79, #33, .T. ) ;
#89 = APPROVAL_PERSON_ORGANIZATION ( #146, #111, #270 ) ;
#90 = FACE_BOUND ( 'NONE', #107, .T. ) ;
#91 = ADVANCED_FACE ( 'NONE', ( #177, #181 ), #286, .T. ) ;
#92 = CIRCLE ( 'NONE', #57, 1.999999999999999112 ) ;
#93 = PERSON_AND_ORGANIZATION ( #119, #74 ) ;
#94 = CARTESIAN_POINT ( 'NONE',  ( -1.710332578358783486E-31, 5.999039130647431116E-33, -4.898587196589413075E-17 ) ) ;
#95 = EDGE_LOOP ( 'NONE', ( #188, #56 ) ) ;
#96 = EDGE_CURVE ( 'NONE', #82, #198, #174, .T. ) ;
#97 = DIRECTION ( 'NONE',  ( 4.275831445896958607E-31, 1.000000000000000000, 1.224646799147353207E-16 ) ) ;
#98 = ORIENTED_EDGE ( 'NONE', *, *, #233, .F. ) ;
#99 =( NAMED_UNIT ( * ) SI_UNIT ( $, .STERADIAN. ) SOLID_ANGLE_UNIT ( ) );
#100 = PERSON_AND_ORGANIZATION ( #119, #74 ) ;
#101 = EDGE_LOOP ( 'NONE', ( #164 ) ) ;
#102 = DIRECTION ( 'NONE',  ( 0.0000000000000000000, 1.000000000000000000, 0.0000000000000000000 ) ) ;
#103 = CC_DESIGN_APPROVAL ( #111, ( #245 ) ) ;
#104 = PERSON_AND_ORGANIZATION ( #119, #74 ) ;
#105 = CARTESIAN_POINT ( 'NONE',  ( 3.840629472727448269E-15, -6.596597130153312817E-16, 1.100000000000000311 ) ) ;
#106 = COORDINATED_UNIVERSAL_TIME_OFFSET ( 1, 0, .AHEAD. ) ;
#107 = EDGE_LOOP ( 'NONE', ( #242 ) ) ;
#108 = CALENDAR_DATE ( 2021, 3, 12 ) ;
#109 = DIRECTION ( 'NONE',  ( -3.491481338843133355E-15, 1.224646799147353207E-16, -1.000000000000000000 ) ) ;
#110 = AXIS2_PLACEMENT_3D ( 'NONE', #69, #155, #77 ) ;
#111 = APPROVAL ( #193, 'UNSPECIFIED' ) ;
#112 = CARTESIAN_POINT ( 'NONE',  ( 3.840629472727448269E-15, -1.347111479062088750E-16, 1.100000000000000311 ) ) ;
#113 = DIRECTION ( 'NONE',  ( -3.491481338843133355E-15, 1.224646799147353207E-16, -1.000000000000000000 ) ) ;
#114 = CIRCLE ( 'NONE', #85, 0.4955617497746390154 ) ;
#115 = LINE ( 'NONE', #68, #138 ) ;
#116 = CARTESIAN_POINT ( 'NONE',  ( 3.840629472727448269E-15, -6.596597130153312817E-16, 1.100000000000000311 ) ) ;
#117 = EDGE_CURVE ( 'NONE', #259, #283, #149, .T. ) ;
#118 = DIRECTION ( 'NONE',  ( 1.000000000000000000, 0.0000000000000000000, -3.491481338843133355E-15 ) ) ;
#119 = PERSON ( 'UNSPECIFIED', 'UNSPECIFIED', 'UNSPECIFIED', ('UNSPECIFIED'), ('UNSPECIFIED'), ('UNSPECIFIED') ) ;
#120 = DIRECTION ( 'NONE',  ( 1.000000000000000000, 0.0000000000000000000, 0.0000000000000000000 ) ) ;
#121 = CC_DESIGN_APPROVAL ( #246, ( #67 ) ) ;
#122 = CARTESIAN_POINT ( 'NONE',  ( 3.840629472727448269E-15, 0.3615871535590764463, 1.100000000000000311 ) ) ;
#123 = ORIENTED_EDGE ( 'NONE', *, *, #300, .F. ) ;
#124 = EDGE_LOOP ( 'NONE', ( #98 ) ) ;
#125 = VERTEX_POINT ( 'NONE', #278 ) ;
#126 = LOCAL_TIME ( 15, 55, 47.00000000000000000, #219 ) ;
#127 = ORIENTED_EDGE ( 'NONE', *, *, #280, .F. ) ;
#128 = FACE_OUTER_BOUND ( 'NONE', #78, .T. ) ;
#129 = APPROVAL_ROLE ( '' ) ;
#130 = FACE_BOUND ( 'NONE', #247, .T. ) ;
#131 = CYLINDRICAL_SURFACE ( 'NONE', #252, 0.3615871535590766128 ) ;
#132 = CARTESIAN_POINT ( 'NONE',  ( 0.0000000000000000000, 0.0000000000000000000, 0.0000000000000000000 ) ) ;
#133 = CARTESIAN_POINT ( 'NONE',  ( 3.999317758067310110E-14, -1.402771836899784115E-15, 11.45450131316595588 ) ) ;
#134 = CIRCLE ( 'NONE', #179, 0.3615871535590765573 ) ;
#135 = FACE_OUTER_BOUND ( 'NONE', #240, .T. ) ;
#136 = CARTESIAN_POINT ( 'NONE',  ( 0.0000000000000000000, 0.4000000000000000222, 0.0000000000000000000 ) ) ;
#137 = PRODUCT ( '53198', '53198', '', ( #255 ) ) ;
#138 = VECTOR ( 'NONE', #87, 1000.000000000000000 ) ;
#139 = EDGE_CURVE ( 'NONE', #198, #259, #231, .T. ) ;
#140 = DIRECTION ( 'NONE',  ( 0.0000000000000000000, -1.000000000000000000, 0.0000000000000000000 ) ) ;
#141 = COORDINATED_UNIVERSAL_TIME_OFFSET ( 1, 0, .AHEAD. ) ;
#142 = CONICAL_SURFACE ( 'NONE', #195, 0.4955617497746390154, 0.5235987755983000369 ) ;
#143 = ORIENTED_EDGE ( 'NONE', *, *, #117, .F. ) ;
#144 = EDGE_LOOP ( 'NONE', ( #215 ) ) ;
#145 = CARTESIAN_POINT ( 'NONE',  ( 8.728703347107833388E-14, 1.599999999999996092, 25.00000000000000000 ) ) ;
#146 = PERSON_AND_ORGANIZATION ( #119, #74 ) ;
#147 = EDGE_LOOP ( 'NONE', ( #123 ) ) ;
#148 = COORDINATED_UNIVERSAL_TIME_OFFSET ( 1, 0, .AHEAD. ) ;
#149 = LINE ( 'NONE', #182, #201 ) ;
#150 = EDGE_CURVE ( 'NONE', #283, #82, #226, .T. ) ;
#151 = AXIS2_PLACEMENT_3D ( 'NONE', #267, #65, #293 ) ;
#152 = DIRECTION ( 'NONE',  ( -3.491481338843133355E-15, 1.224646799147353207E-16, -1.000000000000000000 ) ) ;
#153 = CC_DESIGN_DATE_AND_TIME_ASSIGNMENT ( #171, #9, ( #245 ) ) ;
#154 = AXIS2_PLACEMENT_3D ( 'NONE', #223, #152, #248 ) ;
#155 = DIRECTION ( 'NONE',  ( -3.491481338843133355E-15, 1.224646799147353207E-16, -1.000000000000000000 ) ) ;
#156 = DIRECTION ( 'NONE',  ( -4.275831445896958607E-31, -1.000000000000000000, -1.224646799147353207E-16 ) ) ;
#157 = EDGE_CURVE ( 'NONE', #236, #236, #298, .T. ) ;
#158 = DIRECTION ( 'NONE',  ( -3.491481338843133355E-15, 1.224646799147353207E-16, -1.000000000000000000 ) ) ;
#159 = CARTESIAN_POINT ( 'NONE',  ( 1.571166602479410325E-14, -5.510910596163089556E-16, 4.500000000000000888 ) ) ;
#160 =( LENGTH_UNIT ( ) NAMED_UNIT ( * ) SI_UNIT ( .MILLI., .METRE. ) );
#161 = EDGE_LOOP ( 'NONE', ( #170 ) ) ;
#162 = ADVANCED_FACE ( 'NONE', ( #24 ), #272, .F. ) ;
#163 = PERSON_AND_ORGANIZATION ( #119, #74 ) ;
#164 = ORIENTED_EDGE ( 'NONE', *, *, #88, .F. ) ;
#165 = CLOSED_SHELL ( 'NONE', ( #162, #54, #268, #238, #91, #14, #227 ) ) ;
#166 = VERTEX_POINT ( 'NONE', #1 ) ;
#167 = ORIENTED_EDGE ( 'NONE', *, *, #96, .T. ) ;
#168 = EDGE_CURVE ( 'NONE', #125, #125, #92, .T. ) ;
#169 = CARTESIAN_POINT ( 'NONE',  ( 0.0000000000000000000, 0.0000000000000000000, 0.0000000000000000000 ) ) ;
#170 = ORIENTED_EDGE ( 'NONE', *, *, #168, .T. ) ;
#171 = DATE_AND_TIME ( #221, #27 ) ;
#172 = AXIS2_PLACEMENT_3D ( 'NONE', #282, #28, #30 ) ;
#173 = FACE_OUTER_BOUND ( 'NONE', #237, .T. ) ;
#174 = LINE ( 'NONE', #133, #39 ) ;
#175 = DATE_AND_TIME ( #108, #230 ) ;
#176 = DIRECTION ( 'NONE',  ( 4.275831445896958607E-31, 1.000000000000000000, 1.224646799147353207E-16 ) ) ;
#177 = FACE_OUTER_BOUND ( 'NONE', #101, .T. ) ;
#178 = AXIS2_PLACEMENT_3D ( 'NONE', #43, #11, #61 ) ;
#179 = AXIS2_PLACEMENT_3D ( 'NONE', #184, #72, #46 ) ;
#180 = APPROVAL_DATE_TIME ( #58, #246 ) ;
#181 = FACE_OUTER_BOUND ( 'NONE', #161, .T. ) ;
#182 = CARTESIAN_POINT ( 'NONE',  ( 3.999317758067310110E-14, -1.402771836899784115E-15, 11.45450131316595588 ) ) ;
#183 = MANIFOLD_SOLID_BREP ( 'Corps-Déplacer/Copier1[2]', #297 ) ;
#184 = CARTESIAN_POINT ( 'NONE',  ( 3.840629472727448269E-15, -1.347111479062088750E-16, 1.100000000000000311 ) ) ;
#185 = DIRECTION ( 'NONE',  ( -3.491481338843133355E-15, 1.224646799147353207E-16, -1.000000000000000000 ) ) ;
#186 = AXIS2_PLACEMENT_3D ( 'NONE', #112, #113, #296 ) ;
#187 = PERSON_AND_ORGANIZATION_ROLE ( 'design_owner' ) ;
#188 = ORIENTED_EDGE ( 'NONE', *, *, #150, .F. ) ;
#189 = DIRECTION ( 'NONE',  ( -3.491481338843133355E-15, 1.224646799147353207E-16, -1.000000000000000000 ) ) ;
#190 = AXIS2_PLACEMENT_3D ( 'NONE', #116, #206, #156 ) ;
#191 = DIRECTION ( 'NONE',  ( 0.0000000000000000000, 1.000000000000000000, 0.0000000000000000000 ) ) ;
#192 = APPLICATION_PROTOCOL_DEFINITION ( 'international standard', 'config_control_design', 1994, #207 ) ;
#193 = APPROVAL_STATUS ( 'not_yet_approved' ) ;
#194 = PERSON_AND_ORGANIZATION_ROLE ( 'creator' ) ;
#195 = AXIS2_PLACEMENT_3D ( 'NONE', #159, #49, #140 ) ;
#196 = ORIENTED_EDGE ( 'NONE', *, *, #96, .F. ) ;
#197 = PERSON_AND_ORGANIZATION_ROLE ( 'design_supplier' ) ;
#198 = VERTEX_POINT ( 'NONE', #276 ) ;
#199 = PLANE ( 'NONE',  #269 ) ;
#200 = DIRECTION ( 'NONE',  ( -3.491481338843133355E-15, 1.224646799147353207E-16, -1.000000000000000000 ) ) ;
#201 = VECTOR ( 'NONE', #228, 1000.000000000000227 ) ;
#202 = DIRECTION ( 'NONE',  ( 4.275831445896958607E-31, 1.000000000000000000, 1.224646799147353207E-16 ) ) ;
#203 = PRODUCT_DEFINITION_SHAPE ( 'NONE', 'NONE',  #67 ) ;
#204 = PRODUCT_DEFINITION_FORMATION_WITH_SPECIFIED_SOURCE ( 'ANY', '', #137, .NOT_KNOWN. ) ;
#205 = FACE_OUTER_BOUND ( 'NONE', #10, .T. ) ;
#206 = DIRECTION ( 'NONE',  ( 3.491481338843133355E-15, -1.224646799147353207E-16, 1.000000000000000000 ) ) ;
#207 = APPLICATION_CONTEXT ( 'configuration controlled 3d designs of mechanical parts and assemblies' ) ;
#208 = CARTESIAN_POINT ( 'NONE',  ( 1.396592535537253342E-14, -4.898587196589412829E-16, 4.000000000000000000 ) ) ;
#209 = AXIS2_PLACEMENT_3D ( 'NONE', #169, #29, #120 ) ;
#210 = CC_DESIGN_PERSON_AND_ORGANIZATION_ASSIGNMENT ( #64, #291, ( #245 ) ) ;
#211 = VERTEX_POINT ( 'NONE', #241 ) ;
#212 =( NAMED_UNIT ( * ) PLANE_ANGLE_UNIT ( ) SI_UNIT ( $, .RADIAN. ) );
#213 = EDGE_CURVE ( 'NONE', #283, #82, #115, .T. ) ;
#214 = CONICAL_SURFACE ( 'NONE', #45, 0.4000000000000000222, 0.03490658503988745831 ) ;
#215 = ORIENTED_EDGE ( 'NONE', *, *, #88, .T. ) ;
#216 = DATE_TIME_ROLE ( 'creation_date' ) ;
#217 = EDGE_LOOP ( 'NONE', ( #284 ) ) ;
#218 = CC_DESIGN_PERSON_AND_ORGANIZATION_ASSIGNMENT ( #93, #187, ( #137 ) ) ;
#219 = COORDINATED_UNIVERSAL_TIME_OFFSET ( 1, 0, .AHEAD. ) ;
#220 = DIRECTION ( 'NONE',  ( 4.275831445896958607E-31, 1.000000000000000000, 1.224646799147353207E-16 ) ) ;
#221 = CALENDAR_DATE ( 2021, 3, 12 ) ;
#222 = AXIS2_PLACEMENT_3D ( 'NONE', #275, #185, #229 ) ;
#223 = CARTESIAN_POINT ( 'NONE',  ( 0.0000000000000000000, 0.0000000000000000000, 0.0000000000000000000 ) ) ;
#224 = CALENDAR_DATE ( 2021, 3, 12 ) ;
#225 = ORIENTED_EDGE ( 'NONE', *, *, #139, .T. ) ;
#226 = CIRCLE ( 'NONE', #186, 0.3615871535590765573 ) ;
#227 = ADVANCED_FACE ( 'NONE', ( #205 ), #301, .F. ) ;
#228 = DIRECTION ( 'NONE',  ( 3.489354422748178188E-15, 0.03489949670250171165, 0.9993908270190956511 ) ) ;
#229 = DIRECTION ( 'NONE',  ( 0.0000000000000000000, 1.000000000000000000, 0.0000000000000000000 ) ) ;
#230 = LOCAL_TIME ( 15, 55, 47.00000000000000000, #106 ) ;
#231 = LINE ( 'NONE', #136, #12 ) ;
#232 = CARTESIAN_POINT ( 'NONE',  ( -3.420665156717566973E-31, -0.4000000000000000222, -9.797174393178826150E-17 ) ) ;
#233 = EDGE_CURVE ( 'NONE', #7, #7, #134, .T. ) ;
#234 = DIRECTION ( 'NONE',  ( -3.491481338843133355E-15, 0.0000000000000000000, -1.000000000000000000 ) ) ;
#235 =( GEOMETRIC_REPRESENTATION_CONTEXT ( 3 ) GLOBAL_UNCERTAINTY_ASSIGNED_CONTEXT ( ( #71 ) ) GLOBAL_UNIT_ASSIGNED_CONTEXT ( ( #160, #212, #99 ) ) REPRESENTATION_CONTEXT ( 'NONE', 'WORKASPACE' ) );
#236 = VERTEX_POINT ( 'NONE', #145 ) ;
#237 = EDGE_LOOP ( 'NONE', ( #52 ) ) ;
#238 = ADVANCED_FACE ( 'NONE', ( #299, #90 ), #142, .T. ) ;
#239 = APPLICATION_CONTEXT ( 'configuration controlled 3d designs of mechanical parts and assemblies' ) ;
#240 = EDGE_LOOP ( 'NONE', ( #261, #196, #80, #143 ) ) ;
#241 = CARTESIAN_POINT ( 'NONE',  ( 1.571166602479410325E-14, 0.4955617497746384603, 4.500000000000000888 ) ) ;
#242 = ORIENTED_EDGE ( 'NONE', *, *, #22, .F. ) ;
#243 = FACE_OUTER_BOUND ( 'NONE', #95, .T. ) ;
#244 = CALENDAR_DATE ( 2021, 3, 12 ) ;
#245 = SECURITY_CLASSIFICATION ( '', '', #287 ) ;
#246 = APPROVAL ( #256, 'UNSPECIFIED' ) ;
#247 = EDGE_LOOP ( 'NONE', ( #257 ) ) ;
#248 = DIRECTION ( 'NONE',  ( 4.275831445896957731E-31, 1.000000000000000000, 1.224646799147353207E-16 ) ) ;
#249 = APPROVAL_PERSON_ORGANIZATION ( #163, #246, #51 ) ;
#250 = PRODUCT_RELATED_PRODUCT_CATEGORY ( 'detail', '', ( #137 ) ) ;
#251 = DIRECTION ( 'NONE',  ( -3.491481338843133355E-15, 1.224646799147353207E-16, -1.000000000000000000 ) ) ;
#252 = AXIS2_PLACEMENT_3D ( 'NONE', #132, #200, #220 ) ;
#253 = LOCAL_TIME ( 15, 55, 47.00000000000000000, #141 ) ;
#254 = APPROVAL ( #59, 'UNSPECIFIED' ) ;
#255 = MECHANICAL_CONTEXT ( 'NONE', #207, 'mechanical' ) ;
#256 = APPROVAL_STATUS ( 'not_yet_approved' ) ;
#257 = ORIENTED_EDGE ( 'NONE', *, *, #157, .T. ) ;
#258 = CC_DESIGN_PERSON_AND_ORGANIZATION_ASSIGNMENT ( #100, #264, ( #67 ) ) ;
#259 = VERTEX_POINT ( 'NONE', #232 ) ;
#260 = CARTESIAN_POINT ( 'NONE',  ( 3.840629472727448269E-15, -0.3615871535590766683, 1.100000000000000311 ) ) ;
#261 = ORIENTED_EDGE ( 'NONE', *, *, #139, .F. ) ;
#262 = TOROIDAL_SURFACE ( 'NONE', #110, 1.361587153559076446, 0.9999999999999995559 ) ;
#263 = PLANE ( 'NONE',  #62 ) ;
#264 = PERSON_AND_ORGANIZATION_ROLE ( 'creator' ) ;
#265 = DIRECTION ( 'NONE',  ( -3.489354422748178188E-15, 0.03489949670250196145, -0.9993908270190956511 ) ) ;
#266 = APPROVAL_DATE_TIME ( #175, #111 ) ;
#267 = CARTESIAN_POINT ( 'NONE',  ( 8.728703347107833388E-14, -3.061616997868383043E-15, 25.00000000000000000 ) ) ;
#268 = ADVANCED_FACE ( 'NONE', ( #25, #294 ), #262, .F. ) ;
#269 = AXIS2_PLACEMENT_3D ( 'NONE', #84, #109, #176 ) ;
#270 = APPROVAL_ROLE ( '' ) ;
#271 = DIRECTION ( 'NONE',  ( 3.491481338843133355E-15, -1.224646799147353207E-16, 1.000000000000000000 ) ) ;
#272 = PLANE ( 'NONE',  #190 ) ;
#273 = ADVANCED_FACE ( 'NONE', ( #135 ), #5, .T. ) ;
#274 = CC_DESIGN_SECURITY_CLASSIFICATION ( #245, ( #204 ) ) ;
#275 = CARTESIAN_POINT ( 'NONE',  ( 8.728703347107833388E-14, -3.061616997868383043E-15, 25.00000000000000000 ) ) ;
#276 = CARTESIAN_POINT ( 'NONE',  ( 0.0000000000000000000, 0.4000000000000000222, 0.0000000000000000000 ) ) ;
#277 = CIRCLE ( 'NONE', #63, 0.3615871535590766128 ) ;
#278 = CARTESIAN_POINT ( 'NONE',  ( 8.589044093554108054E-14, 1.999999999999996225, 24.60000000000000142 ) ) ;
#279 = MANIFOLD_SOLID_BREP ( 'Corps-Déplacer/Copier1[1]', #165 ) ;
#280 = EDGE_CURVE ( 'NONE', #259, #198, #2, .T. ) ;
#281 = CONICAL_SURFACE ( 'NONE', #151, 1.599999999999999201, 0.7853981633974469467 ) ;
#282 = CARTESIAN_POINT ( 'NONE',  ( -1.710332578358783486E-31, 5.999039130647431116E-33, -4.898587196589413075E-17 ) ) ;
#283 = VERTEX_POINT ( 'NONE', #260 ) ;
#284 = ORIENTED_EDGE ( 'NONE', *, *, #300, .T. ) ;
#285 = CC_DESIGN_APPROVAL ( #254, ( #204 ) ) ;
#286 = CYLINDRICAL_SURFACE ( 'NONE', #154, 1.999999999999998224 ) ;
#287 = SECURITY_CLASSIFICATION_LEVEL ( 'unclassified' ) ;
#288 = CARTESIAN_POINT ( 'NONE',  ( 1.571166602479410325E-14, -5.510910596163089556E-16, 4.500000000000000888 ) ) ;
#289 = ADVANCED_FACE ( 'NONE', ( #53 ), #214, .T. ) ;
#290 = EDGE_LOOP ( 'NONE', ( #20 ) ) ;
#291 = PERSON_AND_ORGANIZATION_ROLE ( 'classification_officer' ) ;
#292 = APPROVAL_PERSON_ORGANIZATION ( #37, #254, #129 ) ;
#293 = DIRECTION ( 'NONE',  ( 0.0000000000000000000, 1.000000000000000000, 0.0000000000000000000 ) ) ;
#294 = FACE_OUTER_BOUND ( 'NONE', #147, .T. ) ;
#295 = CARTESIAN_POINT ( 'NONE',  ( 8.589044093554108054E-14, -3.012631125902488826E-15, 24.60000000000000142 ) ) ;
#296 = DIRECTION ( 'NONE',  ( 0.0000000000000000000, 1.000000000000000000, 0.0000000000000000000 ) ) ;
#297 = CLOSED_SHELL ( 'NONE', ( #50, #289, #32, #273 ) ) ;
#298 = CIRCLE ( 'NONE', #222, 1.599999999999999201 ) ;
#299 = FACE_OUTER_BOUND ( 'NONE', #144, .T. ) ;
#300 = EDGE_CURVE ( 'NONE', #166, #166, #277, .T. ) ;
#301 = PLANE ( 'NONE',  #6 ) ;
ENDSEC;
END-ISO-10303-21;
