ISO-10303-21;
HEADER;
FILE_DESCRIPTION (( 'STEP AP203' ),
    '1' );
FILE_NAME ('53197.step',
    '2021-12-03T14:55:46',
    ( '' ),
    ( '' ),
    'SwSTEP 2.0',
    'SolidWorks 2019',
    '' );
FILE_SCHEMA (( 'CONFIG_CONTROL_DESIGN' ));
ENDSEC;

DATA;
#1 = ADVANCED_FACE ( 'NONE', ( #157 ), #223, .F. ) ;
#2 = ORIENTED_EDGE ( 'NONE', *, *, #113, .F. ) ;
#3 = APPLICATION_CONTEXT ( 'configuration controlled 3d designs of mechanical parts and assemblies' ) ;
#4 = AXIS2_PLACEMENT_3D ( 'NONE', #174, #63, #265 ) ;
#5 = APPROVAL_PERSON_ORGANIZATION ( #167, #84, #29 ) ;
#6 = ADVANCED_FACE ( 'NONE', ( #204, #101 ), #158, .T. ) ;
#7 = PERSON_AND_ORGANIZATION_ROLE ( 'design_owner' ) ;
#8 = COORDINATED_UNIVERSAL_TIME_OFFSET ( 1, 0, .AHEAD. ) ;
#9 = APPROVAL_STATUS ( 'not_yet_approved' ) ;
#10 = ORIENTED_EDGE ( 'NONE', *, *, #194, .T. ) ;
#11 = ADVANCED_FACE ( 'NONE', ( #88, #17 ), #266, .T. ) ;
#12 = PLANE ( 'NONE',  #142 ) ;
#13 = CARTESIAN_POINT ( 'NONE',  ( 3.491481338843131778E-15, 0.2650792305082512734, 0.9999999999999995559 ) ) ;
#14 = LOCAL_TIME ( 15, 55, 46.00000000000000000, #8 ) ;
#15 = CARTESIAN_POINT ( 'NONE',  ( 8.589044093554108054E-14, 1.999999999999996225, 24.60000000000000142 ) ) ;
#16 = DIRECTION ( 'NONE',  ( -3.491481338843133355E-15, 1.224646799147353207E-16, -1.000000000000000000 ) ) ;
#17 = FACE_BOUND ( 'NONE', #255, .T. ) ;
#18 = AXIS2_PLACEMENT_3D ( 'NONE', #296, #301, #183 ) ;
#19 = ORIENTED_EDGE ( 'NONE', *, *, #30, .F. ) ;
#20 = FACE_OUTER_BOUND ( 'NONE', #192, .T. ) ;
#21 = CC_DESIGN_PERSON_AND_ORGANIZATION_ASSIGNMENT ( #120, #214, ( #51 ) ) ;
#22 = CARTESIAN_POINT ( 'NONE',  ( 3.491481338843131778E-15, 1.987775845676134998E-33, 0.9999999999999995559 ) ) ;
#23 = VERTEX_POINT ( 'NONE', #178 ) ;
#24 = VERTEX_POINT ( 'NONE', #195 ) ;
#25 = CIRCLE ( 'NONE', #180, 1.999999999999999112 ) ;
#26 = LOCAL_TIME ( 15, 55, 46.00000000000000000, #263 ) ;
#27 = CARTESIAN_POINT ( 'NONE',  ( 3.491481338843131778E-15, 1.987775845676134998E-33, 0.9999999999999995559 ) ) ;
#28 = ORIENTED_EDGE ( 'NONE', *, *, #281, .F. ) ;
#29 = APPROVAL_ROLE ( '' ) ;
#30 = EDGE_CURVE ( 'NONE', #23, #24, #44, .T. ) ;
#31 = AXIS2_PLACEMENT_3D ( 'NONE', #105, #272, #124 ) ;
#32 = MECHANICAL_CONTEXT ( 'NONE', #53, 'mechanical' ) ;
#33 = APPROVAL_PERSON_ORGANIZATION ( #98, #289, #241 ) ;
#34 = DATE_AND_TIME ( #145, #26 ) ;
#35 = ORIENTED_EDGE ( 'NONE', *, *, #267, .F. ) ;
#36 = APPROVAL_DATE_TIME ( #61, #289 ) ;
#37 = VECTOR ( 'NONE', #92, 1000.000000000000227 ) ;
#38 = PRODUCT_DEFINITION ( 'UNKNOWN', '', #51, #233 ) ;
#39 = DIRECTION ( 'NONE',  ( -4.275831445896959482E-31, -1.000000000000000000, -1.224646799147353454E-16 ) ) ;
#40 = FACE_OUTER_BOUND ( 'NONE', #182, .T. ) ;
#41 = CARTESIAN_POINT ( 'NONE',  ( 8.589044093554108054E-14, -3.012631125902488826E-15, 24.60000000000000142 ) ) ;
#42 = ADVANCED_BREP_SHAPE_REPRESENTATION ( '53197', ( #140, #247, #85 ), #222 ) ;
#43 = VERTEX_POINT ( 'NONE', #226 ) ;
#44 = LINE ( 'NONE', #127, #250 ) ;
#45 = CARTESIAN_POINT ( 'NONE',  ( 3.491481338843131778E-15, 0.2650792305082512734, 0.9999999999999995559 ) ) ;
#46 = LINE ( 'NONE', #243, #37 ) ;
#47 = CARTESIAN_POINT ( 'NONE',  ( 8.728703347107833388E-14, -3.061616997868383043E-15, 25.00000000000000000 ) ) ;
#48 = ORIENTED_EDGE ( 'NONE', *, *, #143, .T. ) ;
#49 = EDGE_CURVE ( 'NONE', #70, #70, #165, .T. ) ;
#50 = APPROVAL ( #9, 'UNSPECIFIED' ) ;
#51 = PRODUCT_DEFINITION_FORMATION_WITH_SPECIFIED_SOURCE ( 'ANY', '', #224, .NOT_KNOWN. ) ;
#52 = ORIENTED_EDGE ( 'NONE', *, *, #75, .F. ) ;
#53 = APPLICATION_CONTEXT ( 'configuration controlled 3d designs of mechanical parts and assemblies' ) ;
#54 = DIRECTION ( 'NONE',  ( -3.491481338843133355E-15, 1.224646799147353207E-16, -1.000000000000000000 ) ) ;
#55 = UNCERTAINTY_MEASURE_WITH_UNIT (LENGTH_MEASURE( 1.000000000000000082E-05 ), #251, 'distance_accuracy_value', 'NONE');
#56 = DIRECTION ( 'NONE',  ( -3.491481338843133355E-15, 1.224646799147353207E-16, -1.000000000000000000 ) ) ;
#57 = ORIENTED_EDGE ( 'NONE', *, *, #113, .T. ) ;
#58 = CALENDAR_DATE ( 2021, 3, 12 ) ;
#59 = PERSON_AND_ORGANIZATION_ROLE ( 'classification_officer' ) ;
#60 = LOCAL_TIME ( 15, 55, 46.00000000000000000, #188 ) ;
#61 = DATE_AND_TIME ( #58, #14 ) ;
#62 = CALENDAR_DATE ( 2021, 3, 12 ) ;
#63 = DIRECTION ( 'NONE',  ( -3.491481338843133355E-15, 1.224646799147353207E-16, -1.000000000000000000 ) ) ;
#64 = CARTESIAN_POINT ( 'NONE',  ( 3.491481338843131778E-15, -1.224646799147352714E-16, 0.9999999999999995559 ) ) ;
#65 = ADVANCED_FACE ( 'NONE', ( #90 ), #12, .T. ) ;
#66 = CARTESIAN_POINT ( 'NONE',  ( 1.222018468595096517E-14, 0.3990538267238127879, 3.499999999999999556 ) ) ;
#67 = VERTEX_POINT ( 'NONE', #274 ) ;
#68 = DIRECTION ( 'NONE',  ( -3.491481338843133355E-15, 1.224646799147353207E-16, -1.000000000000000000 ) ) ;
#69 = AXIS2_PLACEMENT_3D ( 'NONE', #123, #154, #107 ) ;
#70 = VERTEX_POINT ( 'NONE', #66 ) ;
#71 = CARTESIAN_POINT ( 'NONE',  ( 3.491481338843131778E-15, -0.2650792305082514955, 0.9999999999999995559 ) ) ;
#72 = AXIS2_PLACEMENT_3D ( 'NONE', #253, #56, #275 ) ;
#73 = CC_DESIGN_APPROVAL ( #289, ( #38 ) ) ;
#74 = CARTESIAN_POINT ( 'NONE',  ( -1.282749433769087232E-31, 4.499279347985571455E-33, -3.673940397442058882E-17 ) ) ;
#75 = EDGE_CURVE ( 'NONE', #82, #23, #46, .T. ) ;
#76 = EDGE_LOOP ( 'NONE', ( #95 ) ) ;
#77 = DIRECTION ( 'NONE',  ( 4.393069262771474214E-31, 1.000000000000000000, 1.224646799147353207E-16 ) ) ;
#78 = EDGE_LOOP ( 'NONE', ( #170 ) ) ;
#79 = CARTESIAN_POINT ( 'NONE',  ( 0.0000000000000000000, 0.0000000000000000000, 0.0000000000000000000 ) ) ;
#80 = CIRCLE ( 'NONE', #149, 0.2999999999999999334 ) ;
#81 = AXIS2_PLACEMENT_3D ( 'NONE', #181, #278, #77 ) ;
#82 = VERTEX_POINT ( 'NONE', #13 ) ;
#83 = CALENDAR_DATE ( 2021, 3, 12 ) ;
#84 = APPROVAL ( #242, 'UNSPECIFIED' ) ;
#85 = AXIS2_PLACEMENT_3D ( 'NONE', #153, #249, #259 ) ;
#86 = PERSON_AND_ORGANIZATION ( #215, #288 ) ;
#87 = PERSON_AND_ORGANIZATION_ROLE ( 'design_supplier' ) ;
#88 = FACE_OUTER_BOUND ( 'NONE', #76, .T. ) ;
#89 = CARTESIAN_POINT ( 'NONE',  ( 2.190178351213983495E-14, -7.682111536831958098E-16, 6.272920112297311945 ) ) ;
#90 = FACE_OUTER_BOUND ( 'NONE', #284, .T. ) ;
#91 = DIRECTION ( 'NONE',  ( 0.0000000000000000000, 1.000000000000000000, 0.0000000000000000000 ) ) ;
#92 = DIRECTION ( 'NONE',  ( -3.489354422748178188E-15, 0.03489949670250193370, -0.9993908270190956511 ) ) ;
#93 = FACE_OUTER_BOUND ( 'NONE', #97, .T. ) ;
#94 = PLANE ( 'NONE',  #252 ) ;
#95 = ORIENTED_EDGE ( 'NONE', *, *, #138, .F. ) ;
#96 = FACE_OUTER_BOUND ( 'NONE', #137, .T. ) ;
#97 = EDGE_LOOP ( 'NONE', ( #115, #57, #166, #297 ) ) ;
#98 = PERSON_AND_ORGANIZATION ( #215, #288 ) ;
#99 = APPROVAL_STATUS ( 'not_yet_approved' ) ;
#100 = LINE ( 'NONE', #196, #102 ) ;
#101 = FACE_BOUND ( 'NONE', #258, .T. ) ;
#102 = VECTOR ( 'NONE', #290, 1000.000000000000227 ) ;
#103 = LOCAL_TIME ( 15, 55, 46.00000000000000000, #283 ) ;
#104 = DIRECTION ( 'NONE',  ( -3.491481338843133355E-15, 1.224646799147353207E-16, -1.000000000000000000 ) ) ;
#105 = CARTESIAN_POINT ( 'NONE',  ( 1.222018468595096517E-14, -4.286263797015736102E-16, 3.499999999999999556 ) ) ;
#106 = DIRECTION ( 'NONE',  ( 0.0000000000000000000, 1.000000000000000000, 0.0000000000000000000 ) ) ;
#107 = DIRECTION ( 'NONE',  ( 0.0000000000000000000, 1.000000000000000000, 0.0000000000000000000 ) ) ;
#108 = CC_DESIGN_DATE_AND_TIME_ASSIGNMENT ( #34, #190, ( #229 ) ) ;
#109 = VERTEX_POINT ( 'NONE', #15 ) ;
#110 = AXIS2_PLACEMENT_3D ( 'NONE', #47, #16, #203 ) ;
#111 = ORIENTED_EDGE ( 'NONE', *, *, #30, .T. ) ;
#112 = DIRECTION ( 'NONE',  ( 4.275831445896958607E-31, 1.000000000000000000, 1.224646799147353207E-16 ) ) ;
#113 = EDGE_CURVE ( 'NONE', #24, #161, #100, .T. ) ;
#114 = PLANE ( 'NONE',  #287 ) ;
#115 = ORIENTED_EDGE ( 'NONE', *, *, #262, .F. ) ;
#116 = FACE_OUTER_BOUND ( 'NONE', #164, .T. ) ;
#117 = ORIENTED_EDGE ( 'NONE', *, *, #49, .F. ) ;
#118 = EDGE_LOOP ( 'NONE', ( #48 ) ) ;
#119 = CC_DESIGN_PERSON_AND_ORGANIZATION_ASSIGNMENT ( #86, #87, ( #51 ) ) ;
#120 = PERSON_AND_ORGANIZATION ( #215, #288 ) ;
#121 = DATE_AND_TIME ( #83, #103 ) ;
#122 = PERSON_AND_ORGANIZATION ( #215, #288 ) ;
#123 = CARTESIAN_POINT ( 'NONE',  ( 8.728703347107833388E-14, -3.061616997868383043E-15, 25.00000000000000000 ) ) ;
#124 = DIRECTION ( 'NONE',  ( 0.0000000000000000000, 1.000000000000000000, 0.0000000000000000000 ) ) ;
#125 = CC_DESIGN_PERSON_AND_ORGANIZATION_ASSIGNMENT ( #217, #171, ( #38 ) ) ;
#126 = ORIENTED_EDGE ( 'NONE', *, *, #168, .F. ) ;
#127 = CARTESIAN_POINT ( 'NONE',  ( 0.0000000000000000000, 0.2999999999999999334, 0.0000000000000000000 ) ) ;
#128 = DIRECTION ( 'NONE',  ( -3.491481338843133355E-15, 1.224646799147353207E-16, -1.000000000000000000 ) ) ;
#129 = EDGE_LOOP ( 'NONE', ( #28 ) ) ;
#130 = CC_DESIGN_PERSON_AND_ORGANIZATION_ASSIGNMENT ( #146, #59, ( #229 ) ) ;
#131 = AXIS2_PLACEMENT_3D ( 'NONE', #159, #177, #225 ) ;
#132 = DIRECTION ( 'NONE',  ( 0.0000000000000000000, 1.000000000000000000, 0.0000000000000000000 ) ) ;
#133 = APPROVAL_PERSON_ORGANIZATION ( #286, #50, #173 ) ;
#134 = DIRECTION ( 'NONE',  ( 1.000000000000000000, 0.0000000000000000000, -3.491481338843133355E-15 ) ) ;
#135 = ORIENTED_EDGE ( 'NONE', *, *, #281, .T. ) ;
#136 = DIRECTION ( 'NONE',  ( -3.491481338843133355E-15, 0.0000000000000000000, -1.000000000000000000 ) ) ;
#137 = EDGE_LOOP ( 'NONE', ( #189 ) ) ;
#138 = EDGE_CURVE ( 'NONE', #109, #109, #25, .T. ) ;
#139 = DIRECTION ( 'NONE',  ( -4.275831445896958607E-31, -1.000000000000000000, -1.224646799147353207E-16 ) ) ;
#140 = MANIFOLD_SOLID_BREP ( 'Corps-Déplacer/Copier1[1]', #198 ) ;
#141 = CALENDAR_DATE ( 2021, 3, 12 ) ;
#142 = AXIS2_PLACEMENT_3D ( 'NONE', #270, #68, #220 ) ;
#143 = EDGE_CURVE ( 'NONE', #160, #160, #206, .T. ) ;
#144 = ORIENTED_EDGE ( 'NONE', *, *, #194, .F. ) ;
#145 = CALENDAR_DATE ( 2021, 3, 12 ) ;
#146 = PERSON_AND_ORGANIZATION ( #215, #288 ) ;
#147 = DATE_AND_TIME ( #62, #239 ) ;
#148 = ADVANCED_FACE ( 'NONE', ( #207 ), #94, .F. ) ;
#149 = AXIS2_PLACEMENT_3D ( 'NONE', #205, #269, #268 ) ;
#150 = CARTESIAN_POINT ( 'NONE',  ( 1.222018468595096517E-14, -4.286263797015736102E-16, 3.499999999999999556 ) ) ;
#151 = ADVANCED_FACE ( 'NONE', ( #116, #300 ), #228, .F. ) ;
#152 = PLANE ( 'NONE',  #131 ) ;
#153 = CARTESIAN_POINT ( 'NONE',  ( 0.0000000000000000000, 0.0000000000000000000, 0.0000000000000000000 ) ) ;
#154 = DIRECTION ( 'NONE',  ( -3.491481338843133355E-15, 1.224646799147353207E-16, -1.000000000000000000 ) ) ;
#155 =( NAMED_UNIT ( * ) PLANE_ANGLE_UNIT ( ) SI_UNIT ( $, .RADIAN. ) );
#156 = ADVANCED_FACE ( 'NONE', ( #235 ), #114, .T. ) ;
#157 = FACE_OUTER_BOUND ( 'NONE', #172, .T. ) ;
#158 = CONICAL_SURFACE ( 'NONE', #293, 0.3990538267238132319, 0.5235987755982998149 ) ;
#159 = CARTESIAN_POINT ( 'NONE',  ( 3.491481338843131778E-15, 1.987775845676134998E-33, 0.9999999999999995559 ) ) ;
#160 = VERTEX_POINT ( 'NONE', #45 ) ;
#161 = VERTEX_POINT ( 'NONE', #71 ) ;
#162 = FACE_OUTER_BOUND ( 'NONE', #129, .T. ) ;
#163 = DIRECTION ( 'NONE',  ( -3.491481338843133355E-15, 1.224646799147353207E-16, -1.000000000000000000 ) ) ;
#164 = EDGE_LOOP ( 'NONE', ( #298 ) ) ;
#165 = CIRCLE ( 'NONE', #31, 0.3990538267238132319 ) ;
#166 = ORIENTED_EDGE ( 'NONE', *, *, #267, .T. ) ;
#167 = PERSON_AND_ORGANIZATION ( #215, #288 ) ;
#168 = EDGE_CURVE ( 'NONE', #43, #43, #218, .T. ) ;
#169 = APPLICATION_PROTOCOL_DEFINITION ( 'international standard', 'config_control_design', 1994, #53 ) ;
#170 = ORIENTED_EDGE ( 'NONE', *, *, #138, .T. ) ;
#171 = PERSON_AND_ORGANIZATION_ROLE ( 'creator' ) ;
#172 = EDGE_LOOP ( 'NONE', ( #209 ) ) ;
#173 = APPROVAL_ROLE ( '' ) ;
#174 = CARTESIAN_POINT ( 'NONE',  ( 8.728703347107833388E-14, 1.199807826129481023E-32, 25.00000000000000000 ) ) ;
#175 = CIRCLE ( 'NONE', #110, 1.599999999999999201 ) ;
#176 = CC_DESIGN_APPROVAL ( #50, ( #229 ) ) ;
#177 = DIRECTION ( 'NONE',  ( 3.491481338843133355E-15, -1.224646799147353207E-16, 1.000000000000000000 ) ) ;
#178 = CARTESIAN_POINT ( 'NONE',  ( 0.0000000000000000000, 0.2999999999999999334, 0.0000000000000000000 ) ) ;
#179 = VERTEX_POINT ( 'NONE', #248 ) ;
#180 = AXIS2_PLACEMENT_3D ( 'NONE', #41, #104, #280 ) ;
#181 = CARTESIAN_POINT ( 'NONE',  ( 1.047444401652939691E-14, -4.336808689942017736E-16, 2.999999999999999112 ) ) ;
#182 = EDGE_LOOP ( 'NONE', ( #35, #10 ) ) ;
#183 = DIRECTION ( 'NONE',  ( 4.275831445896957731E-31, 1.000000000000000000, 1.224646799147353207E-16 ) ) ;
#184 = ORIENTED_EDGE ( 'NONE', *, *, #262, .T. ) ;
#185 = CYLINDRICAL_SURFACE ( 'NONE', #234, 0.2650792305082513844 ) ;
#186 = EDGE_LOOP ( 'NONE', ( #135 ) ) ;
#187 = CIRCLE ( 'NONE', #238, 0.2650792305082513844 ) ;
#188 = COORDINATED_UNIVERSAL_TIME_OFFSET ( 1, 0, .AHEAD. ) ;
#189 = ORIENTED_EDGE ( 'NONE', *, *, #168, .T. ) ;
#190 = DATE_TIME_ROLE ( 'classification_date' ) ;
#191 = AXIS2_PLACEMENT_3D ( 'NONE', #231, #163, #132 ) ;
#192 = EDGE_LOOP ( 'NONE', ( #240 ) ) ;
#193 = DATE_AND_TIME ( #141, #60 ) ;
#194 = EDGE_CURVE ( 'NONE', #161, #82, #208, .T. ) ;
#195 = CARTESIAN_POINT ( 'NONE',  ( -2.565498867538174901E-31, -0.2999999999999999334, -7.347880794884117764E-17 ) ) ;
#196 = CARTESIAN_POINT ( 'NONE',  ( 2.999488318550484318E-14, -1.052078877674838924E-15, 8.590875984874474014 ) ) ;
#197 = DIRECTION ( 'NONE',  ( -3.491481338843133355E-15, 1.224646799147353207E-16, -1.000000000000000000 ) ) ;
#198 = CLOSED_SHELL ( 'NONE', ( #148, #213, #151, #6, #201, #11, #1 ) ) ;
#199 = CC_DESIGN_SECURITY_CLASSIFICATION ( #229, ( #51 ) ) ;
#200 = DIRECTION ( 'NONE',  ( 3.491481338843133355E-15, -1.224646799147353207E-16, 1.000000000000000000 ) ) ;
#201 = ADVANCED_FACE ( 'NONE', ( #162, #295 ), #256, .T. ) ;
#202 =( NAMED_UNIT ( * ) SI_UNIT ( $, .STERADIAN. ) SOLID_ANGLE_UNIT ( ) );
#203 = DIRECTION ( 'NONE',  ( 0.0000000000000000000, 1.000000000000000000, 0.0000000000000000000 ) ) ;
#204 = FACE_OUTER_BOUND ( 'NONE', #186, .T. ) ;
#205 = CARTESIAN_POINT ( 'NONE',  ( -1.282749433769087232E-31, 4.499279347985571455E-33, -3.673940397442058882E-17 ) ) ;
#206 = CIRCLE ( 'NONE', #72, 0.2650792305082513844 ) ;
#207 = FACE_OUTER_BOUND ( 'NONE', #118, .T. ) ;
#208 = LINE ( 'NONE', #27, #246 ) ;
#209 = ORIENTED_EDGE ( 'NONE', *, *, #294, .F. ) ;
#210 = ORIENTED_EDGE ( 'NONE', *, *, #294, .T. ) ;
#211 = DIRECTION ( 'NONE',  ( 3.491481338843133355E-15, -1.224646799147353207E-16, 1.000000000000000000 ) ) ;
#212 = DIRECTION ( 'NONE',  ( 4.275831445896958607E-31, 1.000000000000000000, 1.224646799147353207E-16 ) ) ;
#213 = ADVANCED_FACE ( 'NONE', ( #96, #20 ), #185, .T. ) ;
#214 = PERSON_AND_ORGANIZATION_ROLE ( 'creator' ) ;
#215 = PERSON ( 'UNSPECIFIED', 'UNSPECIFIED', 'UNSPECIFIED', ('UNSPECIFIED'), ('UNSPECIFIED'), ('UNSPECIFIED') ) ;
#216 = APPLICATION_PROTOCOL_DEFINITION ( 'international standard', 'config_control_design', 1994, #3 ) ;
#217 = PERSON_AND_ORGANIZATION ( #215, #288 ) ;
#218 = CIRCLE ( 'NONE', #191, 0.2650792305082514400 ) ;
#219 = APPROVAL_DATE_TIME ( #147, #50 ) ;
#220 = DIRECTION ( 'NONE',  ( 4.275831445896958607E-31, 1.000000000000000000, 1.224646799147353207E-16 ) ) ;
#221 = ADVANCED_FACE ( 'NONE', ( #93 ), #276, .T. ) ;
#222 =( GEOMETRIC_REPRESENTATION_CONTEXT ( 3 ) GLOBAL_UNCERTAINTY_ASSIGNED_CONTEXT ( ( #55 ) ) GLOBAL_UNIT_ASSIGNED_CONTEXT ( ( #251, #155, #202 ) ) REPRESENTATION_CONTEXT ( 'NONE', 'WORKASPACE' ) );
#223 = PLANE ( 'NONE',  #4 ) ;
#224 = PRODUCT ( '53197', '53197', '', ( #32 ) ) ;
#225 = DIRECTION ( 'NONE',  ( -4.275831445896958607E-31, -1.000000000000000000, -1.224646799147353207E-16 ) ) ;
#226 = CARTESIAN_POINT ( 'NONE',  ( 1.047444401652939691E-14, 0.2650792305082510514, 2.999999999999999112 ) ) ;
#227 = CC_DESIGN_DATE_AND_TIME_ASSIGNMENT ( #121, #236, ( #38 ) ) ;
#228 = TOROIDAL_SURFACE ( 'NONE', #81, 1.265079230508251440, 1.000000000000000000 ) ;
#229 = SECURITY_CLASSIFICATION ( '', '', #244 ) ;
#230 = DIRECTION ( 'NONE',  ( -3.491481338843133355E-15, 1.224646799147353207E-16, -1.000000000000000000 ) ) ;
#231 = CARTESIAN_POINT ( 'NONE',  ( 1.047444401652939691E-14, -3.673940397442058882E-16, 2.999999999999999112 ) ) ;
#232 = DIRECTION ( 'NONE',  ( 4.275831445896958607E-31, 1.000000000000000000, 1.224646799147353207E-16 ) ) ;
#233 = DESIGN_CONTEXT ( 'detailed design', #3, 'design' ) ;
#234 = AXIS2_PLACEMENT_3D ( 'NONE', #282, #230, #112 ) ;
#235 = FACE_OUTER_BOUND ( 'NONE', #257, .T. ) ;
#236 = DATE_TIME_ROLE ( 'creation_date' ) ;
#237 = CC_DESIGN_PERSON_AND_ORGANIZATION_ASSIGNMENT ( #122, #7, ( #224 ) ) ;
#238 = AXIS2_PLACEMENT_3D ( 'NONE', #64, #197, #106 ) ;
#239 = LOCAL_TIME ( 15, 55, 46.00000000000000000, #264 ) ;
#240 = ORIENTED_EDGE ( 'NONE', *, *, #143, .F. ) ;
#241 = APPROVAL_ROLE ( '' ) ;
#242 = APPROVAL_STATUS ( 'not_yet_approved' ) ;
#243 = CARTESIAN_POINT ( 'NONE',  ( 2.999488318550484318E-14, -1.052078877674838924E-15, 8.590875984874474014 ) ) ;
#244 = SECURITY_CLASSIFICATION_LEVEL ( 'unclassified' ) ;
#245 = AXIS2_PLACEMENT_3D ( 'NONE', #74, #54, #232 ) ;
#246 = VECTOR ( 'NONE', #212, 1000.000000000000000 ) ;
#247 = MANIFOLD_SOLID_BREP ( 'Corps-Déplacer/Copier1[2]', #261 ) ;
#248 = CARTESIAN_POINT ( 'NONE',  ( 8.728703347107833388E-14, 1.599999999999996092, 25.00000000000000000 ) ) ;
#249 = DIRECTION ( 'NONE',  ( 0.0000000000000000000, 0.0000000000000000000, 1.000000000000000000 ) ) ;
#250 = VECTOR ( 'NONE', #39, 1000.000000000000000 ) ;
#251 =( LENGTH_UNIT ( ) NAMED_UNIT ( * ) SI_UNIT ( .MILLI., .METRE. ) );
#252 = AXIS2_PLACEMENT_3D ( 'NONE', #22, #211, #139 ) ;
#253 = CARTESIAN_POINT ( 'NONE',  ( 3.491481338843131778E-15, -1.224646799147352714E-16, 0.9999999999999995559 ) ) ;
#254 = ADVANCED_FACE ( 'NONE', ( #40 ), #152, .T. ) ;
#255 = EDGE_LOOP ( 'NONE', ( #210 ) ) ;
#256 = CYLINDRICAL_SURFACE ( 'NONE', #18, 1.999999999999998224 ) ;
#257 = EDGE_LOOP ( 'NONE', ( #19, #52, #144, #2 ) ) ;
#258 = EDGE_LOOP ( 'NONE', ( #117 ) ) ;
#259 = DIRECTION ( 'NONE',  ( 1.000000000000000000, 0.0000000000000000000, 0.0000000000000000000 ) ) ;
#260 = SHAPE_DEFINITION_REPRESENTATION ( #273, #42 ) ;
#261 = CLOSED_SHELL ( 'NONE', ( #65, #221, #254, #156 ) ) ;
#262 = EDGE_CURVE ( 'NONE', #24, #23, #80, .T. ) ;
#263 = COORDINATED_UNIVERSAL_TIME_OFFSET ( 1, 0, .AHEAD. ) ;
#264 = COORDINATED_UNIVERSAL_TIME_OFFSET ( 1, 0, .AHEAD. ) ;
#265 = DIRECTION ( 'NONE',  ( 4.275831445896958607E-31, 1.000000000000000000, 1.224646799147353207E-16 ) ) ;
#266 = CONICAL_SURFACE ( 'NONE', #69, 1.599999999999999201, 0.7853981633974469467 ) ;
#267 = EDGE_CURVE ( 'NONE', #161, #82, #187, .T. ) ;
#268 = DIRECTION ( 'NONE',  ( 4.275831445896958607E-31, 1.000000000000000000, 1.224646799147353207E-16 ) ) ;
#269 = DIRECTION ( 'NONE',  ( -3.491481338843133355E-15, 1.224646799147353207E-16, -1.000000000000000000 ) ) ;
#270 = CARTESIAN_POINT ( 'NONE',  ( -6.413747168845436158E-32, 2.249639673992785728E-33, -1.836970198721029441E-17 ) ) ;
#271 = CIRCLE ( 'NONE', #299, 1.999999999999997113 ) ;
#272 = DIRECTION ( 'NONE',  ( -3.491481338843133355E-15, 1.224646799147353207E-16, -1.000000000000000000 ) ) ;
#273 = PRODUCT_DEFINITION_SHAPE ( 'NONE', 'NONE',  #38 ) ;
#274 = CARTESIAN_POINT ( 'NONE',  ( 2.190178351213983495E-14, 1.999999999999996225, 6.272920112297311945 ) ) ;
#275 = DIRECTION ( 'NONE',  ( 0.0000000000000000000, 1.000000000000000000, 0.0000000000000000000 ) ) ;
#276 = CONICAL_SURFACE ( 'NONE', #245, 0.2999999999999999334, 0.03490658503988743055 ) ;
#277 = CC_DESIGN_APPROVAL ( #84, ( #51 ) ) ;
#278 = DIRECTION ( 'NONE',  ( -3.491481338843133355E-15, 1.224646799147353207E-16, -1.000000000000000000 ) ) ;
#279 = PRODUCT_RELATED_PRODUCT_CATEGORY ( 'detail', '', ( #224 ) ) ;
#280 = DIRECTION ( 'NONE',  ( 0.0000000000000000000, 1.000000000000000000, 0.0000000000000000000 ) ) ;
#281 = EDGE_CURVE ( 'NONE', #67, #67, #271, .T. ) ;
#282 = CARTESIAN_POINT ( 'NONE',  ( 0.0000000000000000000, 0.0000000000000000000, 0.0000000000000000000 ) ) ;
#283 = COORDINATED_UNIVERSAL_TIME_OFFSET ( 1, 0, .AHEAD. ) ;
#284 = EDGE_LOOP ( 'NONE', ( #184, #111 ) ) ;
#285 = APPROVAL_DATE_TIME ( #193, #84 ) ;
#286 = PERSON_AND_ORGANIZATION ( #215, #288 ) ;
#287 = AXIS2_PLACEMENT_3D ( 'NONE', #79, #134, #136 ) ;
#288 = ORGANIZATION ( 'UNSPECIFIED', 'UNSPECIFIED', '' ) ;
#289 = APPROVAL ( #99, 'UNSPECIFIED' ) ;
#290 = DIRECTION ( 'NONE',  ( 3.489354422748178188E-15, 0.03489949670250168390, 0.9993908270190956511 ) ) ;
#291 = DIRECTION ( 'NONE',  ( 0.0000000000000000000, -1.000000000000000000, 0.0000000000000000000 ) ) ;
#292 = EDGE_LOOP ( 'NONE', ( #126 ) ) ;
#293 = AXIS2_PLACEMENT_3D ( 'NONE', #150, #200, #291 ) ;
#294 = EDGE_CURVE ( 'NONE', #179, #179, #175, .T. ) ;
#295 = FACE_OUTER_BOUND ( 'NONE', #78, .T. ) ;
#296 = CARTESIAN_POINT ( 'NONE',  ( 0.0000000000000000000, 0.0000000000000000000, 0.0000000000000000000 ) ) ;
#297 = ORIENTED_EDGE ( 'NONE', *, *, #75, .T. ) ;
#298 = ORIENTED_EDGE ( 'NONE', *, *, #49, .T. ) ;
#299 = AXIS2_PLACEMENT_3D ( 'NONE', #89, #128, #91 ) ;
#300 = FACE_OUTER_BOUND ( 'NONE', #292, .T. ) ;
#301 = DIRECTION ( 'NONE',  ( -3.491481338843133355E-15, 1.224646799147353207E-16, -1.000000000000000000 ) ) ;
ENDSEC;
END-ISO-10303-21;
