ISO-10303-21;
HEADER;
FILE_DESCRIPTION (( 'STEP AP203' ),
    '1' );
FILE_NAME ('53153.step',
    '2024-07-12T09:23:03',
    ( '' ),
    ( '' ),
    'SwSTEP 2.0',
    'SolidWorks 2022',
    '' );
FILE_SCHEMA (( 'CONFIG_CONTROL_DESIGN' ));
ENDSEC;

DATA;
#1 = CC_DESIGN_PERSON_AND_ORGANIZATION_ASSIGNMENT ( #9, #175, ( #114 ) ) ;
#2 = CLOSED_SHELL ( 'NONE', ( #21, #133, #64 ) ) ;
#3 = PRODUCT ( '53153', '53153', '', ( #215 ) ) ;
#4 = PERSON_AND_ORGANIZATION ( #80, #109 ) ;
#5 = DIRECTION ( 'NONE',  ( 3.491481338843133355E-15, -1.224646799147353207E-16, 1.000000000000000000 ) ) ;
#6 = APPROVAL_STATUS ( 'not_yet_approved' ) ;
#7 = FACE_OUTER_BOUND ( 'NONE', #151, .T. ) ;
#8 = LOCAL_TIME ( 11, 23, 3.000000000000000000, #50 ) ;
#9 = PERSON_AND_ORGANIZATION ( #80, #109 ) ;
#10 = CLOSED_SHELL ( 'NONE', ( #191, #105, #167, #77, #53, #153 ) ) ;
#11 = ORIENTED_EDGE ( 'NONE', *, *, #124, .T. ) ;
#12 = CALENDAR_DATE ( 2024, 12, 7 ) ;
#13 = PERSON_AND_ORGANIZATION ( #80, #109 ) ;
#14 = FACE_OUTER_BOUND ( 'NONE', #125, .T. ) ;
#15 = APPROVAL ( #180, 'UNSPECIFIED' ) ;
#16 = AXIS2_PLACEMENT_3D ( 'NONE', #73, #140, #29 ) ;
#17 = FACE_OUTER_BOUND ( 'NONE', #32, .T. ) ;
#18 = CARTESIAN_POINT ( 'NONE',  ( 2.269462870248036681E-14, 2.249999999999999556, 6.500000000000000000 ) ) ;
#19 = CYLINDRICAL_SURFACE ( 'NONE', #31, 2.500000000000000444 ) ;
#20 = CARTESIAN_POINT ( 'NONE',  ( 0.000000000000000000, 0.000000000000000000, 0.000000000000000000 ) ) ;
#21 = ADVANCED_FACE ( 'NONE', ( #7 ), #230, .T. ) ;
#22 = AXIS2_PLACEMENT_3D ( 'NONE', #219, #106, #216 ) ;
#23 = CONICAL_SURFACE ( 'NONE', #46, 2.250000000000000888, 0.7853981633974408405 ) ;
#24 = APPLICATION_CONTEXT ( 'configuration controlled 3d designs of mechanical parts and assemblies' ) ;
#25 = UNCERTAINTY_MEASURE_WITH_UNIT (LENGTH_MEASURE( 1.000000000000000082E-05 ), #149, 'distance_accuracy_value', 'NONE');
#26 = ORIENTED_EDGE ( 'NONE', *, *, #148, .T. ) ;
#27 = ORIENTED_EDGE ( 'NONE', *, *, #124, .F. ) ;
#28 = COORDINATED_UNIVERSAL_TIME_OFFSET ( 1, 0, .AHEAD. ) ;
#29 = DIRECTION ( 'NONE',  ( 4.275831445896958607E-31, 1.000000000000000000, 1.224646799147353207E-16 ) ) ;
#30 = APPLICATION_PROTOCOL_DEFINITION ( 'international standard', 'config_control_design', 1994, #44 ) ;
#31 = AXIS2_PLACEMENT_3D ( 'NONE', #20, #39, #110 ) ;
#32 = EDGE_LOOP ( 'NONE', ( #103 ) ) ;
#33 = DATE_AND_TIME ( #74, #37 ) ;
#34 = FACE_OUTER_BOUND ( 'NONE', #179, .T. ) ;
#35 = DIRECTION ( 'NONE',  ( 4.275831445896959482E-31, 1.000000000000000000, 1.224646799147353207E-16 ) ) ;
#36 = APPROVAL_PERSON_ORGANIZATION ( #196, #15, #181 ) ;
#37 = LOCAL_TIME ( 11, 23, 3.000000000000000000, #123 ) ;
#38 = CARTESIAN_POINT ( 'NONE',  ( 1.745740669421566678E-13, -6.123233995736766085E-15, 50.00000000000000000 ) ) ;
#39 = DIRECTION ( 'NONE',  ( -3.491481338843133355E-15, 1.224646799147353207E-16, -1.000000000000000000 ) ) ;
#40 = DIRECTION ( 'NONE',  ( 0.000000000000000000, 1.000000000000000000, 0.000000000000000000 ) ) ;
#41 = EDGE_CURVE ( 'NONE', #210, #210, #183, .T. ) ;
#42 = APPROVAL_PERSON_ORGANIZATION ( #4, #88, #177 ) ;
#43 = DIRECTION ( 'NONE',  ( -3.491481338843133355E-15, 1.224646799147353207E-16, -1.000000000000000000 ) ) ;
#44 = APPLICATION_CONTEXT ( 'configuration controlled 3d designs of mechanical parts and assemblies' ) ;
#45 = ORIENTED_EDGE ( 'NONE', *, *, #173, .T. ) ;
#46 = AXIS2_PLACEMENT_3D ( 'NONE', #242, #108, #204 ) ;
#47 = EDGE_LOOP ( 'NONE', ( #45 ) ) ;
#48 = DATE_TIME_ROLE ( 'classification_date' ) ;
#49 = DIRECTION ( 'NONE',  ( -3.491481338843133355E-15, 1.224646799147353207E-16, -1.000000000000000000 ) ) ;
#50 = COORDINATED_UNIVERSAL_TIME_OFFSET ( 1, 0, .AHEAD. ) ;
#51 = ORIENTED_EDGE ( 'NONE', *, *, #221, .F. ) ;
#52 = DATE_TIME_ROLE ( 'creation_date' ) ;
#53 = ADVANCED_FACE ( 'NONE', ( #34, #54 ), #227, .T. ) ;
#54 = FACE_BOUND ( 'NONE', #195, .T. ) ;
#55 = CARTESIAN_POINT ( 'NONE',  ( 1.745740669421566678E-13, 2.499999999999989342, 50.00000000000000000 ) ) ;
#56 = FACE_OUTER_BOUND ( 'NONE', #176, .T. ) ;
#57 = LOCAL_TIME ( 11, 23, 3.000000000000000000, #28 ) ;
#58 = DIRECTION ( 'NONE',  ( -3.491481338843133355E-15, 1.224646799147353207E-16, -1.000000000000000000 ) ) ;
#59 = CYLINDRICAL_SURFACE ( 'NONE', #132, 2.999999999999994671 ) ;
#60 = CARTESIAN_POINT ( 'NONE',  ( 0.000000000000000000, 0.000000000000000000, 0.000000000000000000 ) ) ;
#61 = CC_DESIGN_DATE_AND_TIME_ASSIGNMENT ( #202, #48, ( #115 ) ) ;
#62 =( NAMED_UNIT ( * ) PLANE_ANGLE_UNIT ( ) SI_UNIT ( $, .RADIAN. ) );
#63 = AXIS2_PLACEMENT_3D ( 'NONE', #206, #144, #131 ) ;
#64 = ADVANCED_FACE ( 'NONE', ( #14 ), #135, .T. ) ;
#65 = PRODUCT_DEFINITION_SHAPE ( 'NONE', 'NONE',  #114 ) ;
#66 = CARTESIAN_POINT ( 'NONE',  ( 1.745740669421566678E-13, -6.123233995736766085E-15, 50.00000000000000000 ) ) ;
#67 = DIRECTION ( 'NONE',  ( -4.275831445896958607E-31, -1.000000000000000000, -1.224646799147353207E-16 ) ) ;
#68 = CC_DESIGN_APPROVAL ( #88, ( #114 ) ) ;
#69 = PERSON_AND_ORGANIZATION ( #80, #109 ) ;
#70 = EDGE_LOOP ( 'NONE', ( #117 ) ) ;
#71 = SECURITY_CLASSIFICATION_LEVEL ( 'unclassified' ) ;
#72 = APPROVAL_DATE_TIME ( #136, #15 ) ;
#73 = CARTESIAN_POINT ( 'NONE',  ( -5.344789307371198696E-31, 1.874699728327322283E-32, -1.530808498934191817E-16 ) ) ;
#74 = CALENDAR_DATE ( 2024, 12, 7 ) ;
#75 = PRODUCT_DEFINITION_FORMATION_WITH_SPECIFIED_SOURCE ( 'ANY', '', #3, .NOT_KNOWN. ) ;
#76 = CARTESIAN_POINT ( 'NONE',  ( 1.728283262727350822E-13, 2.999999999999988898, 49.49999999999999289 ) ) ;
#77 = ADVANCED_FACE ( 'NONE', ( #137, #214 ), #59, .T. ) ;
#78 = CARTESIAN_POINT ( 'NONE',  ( 3.491481338843132724E-14, 2.249999999999999556, 9.999999999999998224 ) ) ;
#79 = DIRECTION ( 'NONE',  ( -3.491481338843133355E-15, 1.224646799147353207E-16, -1.000000000000000000 ) ) ;
#80 = PERSON ( 'UNSPECIFIED', 'UNSPECIFIED', 'UNSPECIFIED', ('UNSPECIFIED'), ('UNSPECIFIED'), ('UNSPECIFIED') ) ;
#81 = AXIS2_PLACEMENT_3D ( 'NONE', #207, #43, #113 ) ;
#82 = DIRECTION ( 'NONE',  ( 4.275831445896958607E-31, 1.000000000000000000, 1.224646799147353207E-16 ) ) ;
#83 = CARTESIAN_POINT ( 'NONE',  ( 0.000000000000000000, 2.500000000000000444, 0.000000000000000000 ) ) ;
#84 = CC_DESIGN_PERSON_AND_ORGANIZATION_ASSIGNMENT ( #13, #152, ( #75 ) ) ;
#85 = CIRCLE ( 'NONE', #228, 2.250000000000000888 ) ;
#86 = EDGE_CURVE ( 'NONE', #147, #147, #134, .T. ) ;
#87 = APPLICATION_PROTOCOL_DEFINITION ( 'international standard', 'config_control_design', 1994, #24 ) ;
#88 = APPROVAL ( #6, 'UNSPECIFIED' ) ;
#89 = APPROVAL_DATE_TIME ( #119, #88 ) ;
#90 = MANIFOLD_SOLID_BREP ( 'Corps-Déplacer/Copier1[2]', #2 ) ;
#91 = ORIENTED_EDGE ( 'NONE', *, *, #86, .F. ) ;
#92 = MANIFOLD_SOLID_BREP ( 'Corps-Déplacer/Copier1[1]', #10 ) ;
#93 = FACE_OUTER_BOUND ( 'NONE', #197, .T. ) ;
#94 = PLANE ( 'NONE',  #150 ) ;
#95 = DIRECTION ( 'NONE',  ( -4.275831445896958607E-31, -1.000000000000000000, -1.224646799147353207E-16 ) ) ;
#96 = DIRECTION ( 'NONE',  ( -3.491481338843133355E-15, 1.224646799147353207E-16, -1.000000000000000000 ) ) ;
#97 = DIRECTION ( 'NONE',  ( -3.491481338843133355E-15, 1.224646799147353207E-16, -1.000000000000000000 ) ) ;
#98 = CC_DESIGN_SECURITY_CLASSIFICATION ( #115, ( #75 ) ) ;
#99 = CC_DESIGN_DATE_AND_TIME_ASSIGNMENT ( #236, #52, ( #114 ) ) ;
#100 = APPROVAL_DATE_TIME ( #33, #209 ) ;
#101 = CIRCLE ( 'NONE', #171, 2.499999999999995115 ) ;
#102 = APPROVAL_ROLE ( '' ) ;
#103 = ORIENTED_EDGE ( 'NONE', *, *, #41, .F. ) ;
#104 = PERSON_AND_ORGANIZATION_ROLE ( 'design_supplier' ) ;
#105 = ADVANCED_FACE ( 'NONE', ( #186, #187 ), #126, .T. ) ;
#106 = DIRECTION ( 'NONE',  ( -3.491481338843133355E-15, 1.224646799147353207E-16, -1.000000000000000000 ) ) ;
#107 = PERSON_AND_ORGANIZATION ( #80, #109 ) ;
#108 = DIRECTION ( 'NONE',  ( 3.491481338843133355E-15, -1.224646799147353207E-16, 1.000000000000000000 ) ) ;
#109 = ORGANIZATION ( 'UNSPECIFIED', 'UNSPECIFIED', '' ) ;
#110 = DIRECTION ( 'NONE',  ( 4.275831445896958607E-31, 1.000000000000000000, 1.224646799147353207E-16 ) ) ;
#111 = CARTESIAN_POINT ( 'NONE',  ( 2.269462870248036681E-14, -7.960204194457795477E-16, 6.500000000000000000 ) ) ;
#112 = AXIS2_PLACEMENT_3D ( 'NONE', #198, #121, #161 ) ;
#113 = DIRECTION ( 'NONE',  ( 0.000000000000000000, 1.000000000000000000, 0.000000000000000000 ) ) ;
#114 = PRODUCT_DEFINITION ( 'UNKNOWN', '', #75, #192 ) ;
#115 = SECURITY_CLASSIFICATION ( '', '', #71 ) ;
#116 =( GEOMETRIC_REPRESENTATION_CONTEXT ( 3 ) GLOBAL_UNCERTAINTY_ASSIGNED_CONTEXT ( ( #25 ) ) GLOBAL_UNIT_ASSIGNED_CONTEXT ( ( #149, #62, #169 ) ) REPRESENTATION_CONTEXT ( 'NONE', 'WORKASPACE' ) );
#117 = ORIENTED_EDGE ( 'NONE', *, *, #221, .T. ) ;
#118 = PERSON_AND_ORGANIZATION_ROLE ( 'design_owner' ) ;
#119 = DATE_AND_TIME ( #158, #213 ) ;
#120 = EDGE_LOOP ( 'NONE', ( #51 ) ) ;
#121 = DIRECTION ( 'NONE',  ( 0.000000000000000000, 0.000000000000000000, 1.000000000000000000 ) ) ;
#122 = CIRCLE ( 'NONE', #81, 2.999999999999994671 ) ;
#123 = COORDINATED_UNIVERSAL_TIME_OFFSET ( 1, 0, .AHEAD. ) ;
#124 = EDGE_CURVE ( 'NONE', #226, #226, #122, .T. ) ;
#125 = EDGE_LOOP ( 'NONE', ( #159 ) ) ;
#126 = CYLINDRICAL_SURFACE ( 'NONE', #63, 2.250000000000000444 ) ;
#127 = CARTESIAN_POINT ( 'NONE',  ( 2.269462870248036681E-14, -7.960204194457795477E-16, 6.500000000000000000 ) ) ;
#128 = CC_DESIGN_APPROVAL ( #209, ( #75 ) ) ;
#129 = DIRECTION ( 'NONE',  ( 0.000000000000000000, 1.000000000000000000, 0.000000000000000000 ) ) ;
#130 = DIRECTION ( 'NONE',  ( -3.491481338843133355E-15, 1.224646799147353207E-16, -1.000000000000000000 ) ) ;
#131 = DIRECTION ( 'NONE',  ( 4.275831445896958607E-31, 1.000000000000000000, 1.224646799147352961E-16 ) ) ;
#132 = AXIS2_PLACEMENT_3D ( 'NONE', #60, #130, #35 ) ;
#133 = ADVANCED_FACE ( 'NONE', ( #189, #17 ), #19, .T. ) ;
#134 = CIRCLE ( 'NONE', #240, 2.250000000000000444 ) ;
#135 = PLANE ( 'NONE',  #166 ) ;
#136 = DATE_AND_TIME ( #12, #57 ) ;
#137 = FACE_OUTER_BOUND ( 'NONE', #232, .T. ) ;
#138 = PERSON_AND_ORGANIZATION_ROLE ( 'classification_officer' ) ;
#139 = SHAPE_DEFINITION_REPRESENTATION ( #65, #143 ) ;
#140 = DIRECTION ( 'NONE',  ( -3.491481338843133355E-15, 1.224646799147353207E-16, -1.000000000000000000 ) ) ;
#141 = AXIS2_PLACEMENT_3D ( 'NONE', #127, #162, #184 ) ;
#142 = CARTESIAN_POINT ( 'NONE',  ( 3.753342439256369935E-14, 2.999999999999993783, 10.75000000000000355 ) ) ;
#143 = ADVANCED_BREP_SHAPE_REPRESENTATION ( '53153', ( #92, #90, #112 ), #116 ) ;
#144 = DIRECTION ( 'NONE',  ( -3.491481338843133355E-15, 1.224646799147353207E-16, -1.000000000000000000 ) ) ;
#145 = VERTEX_POINT ( 'NONE', #223 ) ;
#146 = PLANE ( 'NONE',  #190 ) ;
#147 = VERTEX_POINT ( 'NONE', #18 ) ;
#148 = EDGE_CURVE ( 'NONE', #185, #185, #199, .T. ) ;
#149 =( LENGTH_UNIT ( ) NAMED_UNIT ( * ) SI_UNIT ( .MILLI., .METRE. ) );
#150 = AXIS2_PLACEMENT_3D ( 'NONE', #241, #97, #82 ) ;
#151 = EDGE_LOOP ( 'NONE', ( #155 ) ) ;
#152 = PERSON_AND_ORGANIZATION_ROLE ( 'creator' ) ;
#153 = ADVANCED_FACE ( 'NONE', ( #165 ), #94, .F. ) ;
#154 = AXIS2_PLACEMENT_3D ( 'NONE', #163, #96, #168 ) ;
#155 = ORIENTED_EDGE ( 'NONE', *, *, #41, .T. ) ;
#156 = COORDINATED_UNIVERSAL_TIME_OFFSET ( 1, 0, .AHEAD. ) ;
#157 = EDGE_LOOP ( 'NONE', ( #91 ) ) ;
#158 = CALENDAR_DATE ( 2024, 12, 7 ) ;
#159 = ORIENTED_EDGE ( 'NONE', *, *, #173, .F. ) ;
#160 = CC_DESIGN_PERSON_AND_ORGANIZATION_ASSIGNMENT ( #217, #118, ( #3 ) ) ;
#161 = DIRECTION ( 'NONE',  ( 1.000000000000000000, 0.000000000000000000, 0.000000000000000000 ) ) ;
#162 = DIRECTION ( 'NONE',  ( -3.491481338843133355E-15, 1.224646799147353207E-16, -1.000000000000000000 ) ) ;
#163 = CARTESIAN_POINT ( 'NONE',  ( 3.753342439256369935E-14, -1.316495309083405209E-15, 10.75000000000000355 ) ) ;
#164 = DIRECTION ( 'NONE',  ( 3.491481338843133355E-15, -1.224646799147353207E-16, 1.000000000000000000 ) ) ;
#165 = FACE_OUTER_BOUND ( 'NONE', #235, .T. ) ;
#166 = AXIS2_PLACEMENT_3D ( 'NONE', #212, #5, #67 ) ;
#167 = ADVANCED_FACE ( 'NONE', ( #56, #224 ), #23, .T. ) ;
#168 = DIRECTION ( 'NONE',  ( 0.000000000000000000, 1.000000000000000000, 0.000000000000000000 ) ) ;
#169 =( NAMED_UNIT ( * ) SI_UNIT ( $, .STERADIAN. ) SOLID_ANGLE_UNIT ( ) );
#170 = CC_DESIGN_APPROVAL ( #15, ( #115 ) ) ;
#171 = AXIS2_PLACEMENT_3D ( 'NONE', #38, #208, #237 ) ;
#172 = LOCAL_TIME ( 11, 23, 3.000000000000000000, #156 ) ;
#173 = EDGE_CURVE ( 'NONE', #145, #145, #205, .T. ) ;
#174 = ORIENTED_EDGE ( 'NONE', *, *, #148, .F. ) ;
#175 = PERSON_AND_ORGANIZATION_ROLE ( 'creator' ) ;
#176 = EDGE_LOOP ( 'NONE', ( #26 ) ) ;
#177 = APPROVAL_ROLE ( '' ) ;
#178 = AXIS2_PLACEMENT_3D ( 'NONE', #66, #49, #182 ) ;
#179 = EDGE_LOOP ( 'NONE', ( #27 ) ) ;
#180 = APPROVAL_STATUS ( 'not_yet_approved' ) ;
#181 = APPROVAL_ROLE ( '' ) ;
#182 = DIRECTION ( 'NONE',  ( 0.000000000000000000, 1.000000000000000000, 0.000000000000000000 ) ) ;
#183 = CIRCLE ( 'NONE', #22, 2.500000000000000444 ) ;
#184 = DIRECTION ( 'NONE',  ( 0.000000000000000000, 1.000000000000000000, 0.000000000000000000 ) ) ;
#185 = VERTEX_POINT ( 'NONE', #142 ) ;
#186 = FACE_OUTER_BOUND ( 'NONE', #70, .T. ) ;
#187 = FACE_OUTER_BOUND ( 'NONE', #157, .T. ) ;
#188 = CC_DESIGN_PERSON_AND_ORGANIZATION_ASSIGNMENT ( #107, #138, ( #115 ) ) ;
#189 = FACE_OUTER_BOUND ( 'NONE', #47, .T. ) ;
#190 = AXIS2_PLACEMENT_3D ( 'NONE', #225, #164, #95 ) ;
#191 = ADVANCED_FACE ( 'NONE', ( #93 ), #146, .F. ) ;
#192 = DESIGN_CONTEXT ( 'detailed design', #44, 'design' ) ;
#193 = EDGE_LOOP ( 'NONE', ( #11 ) ) ;
#194 = COORDINATED_UNIVERSAL_TIME_OFFSET ( 1, 0, .AHEAD. ) ;
#195 = EDGE_LOOP ( 'NONE', ( #234 ) ) ;
#196 = PERSON_AND_ORGANIZATION ( #80, #109 ) ;
#197 = EDGE_LOOP ( 'NONE', ( #218 ) ) ;
#198 = CARTESIAN_POINT ( 'NONE',  ( 0.000000000000000000, 0.000000000000000000, 0.000000000000000000 ) ) ;
#199 = CIRCLE ( 'NONE', #154, 2.999999999999995115 ) ;
#200 = ORIENTED_EDGE ( 'NONE', *, *, #203, .F. ) ;
#201 = CALENDAR_DATE ( 2024, 12, 7 ) ;
#202 = DATE_AND_TIME ( #220, #8 ) ;
#203 = EDGE_CURVE ( 'NONE', #222, #222, #101, .T. ) ;
#204 = DIRECTION ( 'NONE',  ( 0.000000000000000000, -1.000000000000000000, 0.000000000000000000 ) ) ;
#205 = CIRCLE ( 'NONE', #141, 2.500000000000000444 ) ;
#206 = CARTESIAN_POINT ( 'NONE',  ( 0.000000000000000000, 0.000000000000000000, 0.000000000000000000 ) ) ;
#207 = CARTESIAN_POINT ( 'NONE',  ( 1.728283262727350822E-13, -6.062001655779397722E-15, 49.49999999999999289 ) ) ;
#208 = DIRECTION ( 'NONE',  ( -3.491481338843133355E-15, 1.224646799147353207E-16, -1.000000000000000000 ) ) ;
#209 = APPROVAL ( #233, 'UNSPECIFIED' ) ;
#210 = VERTEX_POINT ( 'NONE', #83 ) ;
#211 = PRODUCT_RELATED_PRODUCT_CATEGORY ( 'detail', '', ( #3 ) ) ;
#212 = CARTESIAN_POINT ( 'NONE',  ( 2.269462870248036681E-14, 1.874699728327321736E-32, 6.500000000000000000 ) ) ;
#213 = LOCAL_TIME ( 11, 23, 3.000000000000000000, #194 ) ;
#214 = FACE_OUTER_BOUND ( 'NONE', #193, .T. ) ;
#215 = MECHANICAL_CONTEXT ( 'NONE', #24, 'mechanical' ) ;
#216 = DIRECTION ( 'NONE',  ( 4.275831445896958607E-31, 1.000000000000000000, 1.224646799147353207E-16 ) ) ;
#217 = PERSON_AND_ORGANIZATION ( #80, #109 ) ;
#218 = ORIENTED_EDGE ( 'NONE', *, *, #86, .T. ) ;
#219 = CARTESIAN_POINT ( 'NONE',  ( -1.068957861474239739E-30, 3.749399456654644567E-32, -3.061616997868383634E-16 ) ) ;
#220 = CALENDAR_DATE ( 2024, 12, 7 ) ;
#221 = EDGE_CURVE ( 'NONE', #238, #238, #85, .T. ) ;
#222 = VERTEX_POINT ( 'NONE', #55 ) ;
#223 = CARTESIAN_POINT ( 'NONE',  ( 2.269462870248036681E-14, 2.499999999999999556, 6.500000000000000000 ) ) ;
#224 = FACE_BOUND ( 'NONE', #120, .T. ) ;
#225 = CARTESIAN_POINT ( 'NONE',  ( 2.269462870248036681E-14, 1.687229755494589261E-32, 6.500000000000000000 ) ) ;
#226 = VERTEX_POINT ( 'NONE', #76 ) ;
#227 = CONICAL_SURFACE ( 'NONE', #178, 2.499999999999995115, 0.7853981633974405074 ) ;
#228 = AXIS2_PLACEMENT_3D ( 'NONE', #239, #79, #40 ) ;
#229 = CC_DESIGN_PERSON_AND_ORGANIZATION_ASSIGNMENT ( #69, #104, ( #75 ) ) ;
#230 = PLANE ( 'NONE',  #16 ) ;
#231 = PERSON_AND_ORGANIZATION ( #80, #109 ) ;
#232 = EDGE_LOOP ( 'NONE', ( #174 ) ) ;
#233 = APPROVAL_STATUS ( 'not_yet_approved' ) ;
#234 = ORIENTED_EDGE ( 'NONE', *, *, #203, .T. ) ;
#235 = EDGE_LOOP ( 'NONE', ( #200 ) ) ;
#236 = DATE_AND_TIME ( #201, #172 ) ;
#237 = DIRECTION ( 'NONE',  ( 0.000000000000000000, 1.000000000000000000, 0.000000000000000000 ) ) ;
#238 = VERTEX_POINT ( 'NONE', #78 ) ;
#239 = CARTESIAN_POINT ( 'NONE',  ( 3.491481338843132724E-14, -1.224646799147353059E-15, 9.999999999999998224 ) ) ;
#240 = AXIS2_PLACEMENT_3D ( 'NONE', #111, #58, #129 ) ;
#241 = CARTESIAN_POINT ( 'NONE',  ( 1.745740669421566678E-13, 1.874699728327309420E-32, 50.00000000000000000 ) ) ;
#242 = CARTESIAN_POINT ( 'NONE',  ( 3.491481338843132724E-14, -1.224646799147353059E-15, 9.999999999999998224 ) ) ;
#243 = APPROVAL_PERSON_ORGANIZATION ( #231, #209, #102 ) ;
ENDSEC;
END-ISO-10303-21;
