ISO-10303-21;
HEADER;
FILE_DESCRIPTION (( 'STEP AP203' ),
    '1' );
FILE_NAME ('53059.step',
    '2021-09-03T07:22:44',
    ( '' ),
    ( '' ),
    'SwSTEP 2.0',
    'SolidWorks 2019',
    '' );
FILE_SCHEMA (( 'CONFIG_CONTROL_DESIGN' ));
ENDSEC;

DATA;
#1 = ADVANCED_FACE ( 'NONE', ( #326 ), #323, .T. ) ;
#2 = APPROVAL_PERSON_ORGANIZATION ( #288, #14, #36 ) ;
#3 = EDGE_LOOP ( 'NONE', ( #10, #160 ) ) ;
#4 = COORDINATED_UNIVERSAL_TIME_OFFSET ( 1, 0, .AHEAD. ) ;
#5 = VERTEX_POINT ( 'NONE', #324 ) ;
#6 = DIRECTION ( 'NONE',  ( 1.000000000000000000, 0.0000000000000000000, 0.0000000000000000000 ) ) ;
#7 = EDGE_LOOP ( 'NONE', ( #108, #39, #254 ) ) ;
#8 = PERSON_AND_ORGANIZATION_ROLE ( 'design_supplier' ) ;
#9 = VECTOR ( 'NONE', #95, 1000.000000000000000 ) ;
#10 = ORIENTED_EDGE ( 'NONE', *, *, #117, .F. ) ;
#11 = CC_DESIGN_APPROVAL ( #248, ( #267 ) ) ;
#12 = PRODUCT_RELATED_PRODUCT_CATEGORY ( 'detail', '', ( #77 ) ) ;
#13 = FACE_OUTER_BOUND ( 'NONE', #3, .T. ) ;
#14 = APPROVAL ( #83, 'UNSPECIFIED' ) ;
#15 = CARTESIAN_POINT ( 'NONE',  ( 5.143516556418862220E-16, -4.199999999999997513, -5.143516556418897719E-16 ) ) ;
#16 = AXIS2_PLACEMENT_3D ( 'NONE', #76, #305, #230 ) ;
#17 = DIRECTION ( 'NONE',  ( -3.491481338843133355E-15, 1.224646799147353207E-16, -1.000000000000000000 ) ) ;
#18 = DIRECTION ( 'NONE',  ( 0.0000000000000000000, 1.000000000000000000, 0.0000000000000000000 ) ) ;
#19 = LINE ( 'NONE', #221, #137 ) ;
#20 = FACE_OUTER_BOUND ( 'NONE', #84, .T. ) ;
#21 = DIRECTION ( 'NONE',  ( 3.491481338843133355E-15, -1.224646799147353207E-16, 1.000000000000000000 ) ) ;
#22 = CC_DESIGN_PERSON_AND_ORGANIZATION_ASSIGNMENT ( #213, #8, ( #189 ) ) ;
#23 = CARTESIAN_POINT ( 'NONE',  ( 2.758270257686075477E-13, -9.674709713264090904E-15, 79.00000000000000000 ) ) ;
#24 = AXIS2_PLACEMENT_3D ( 'NONE', #142, #46, #293 ) ;
#25 = DIRECTION ( 'NONE',  ( -4.275831445896958607E-31, -1.000000000000000000, -1.224646799147353207E-16 ) ) ;
#26 = CARTESIAN_POINT ( 'NONE',  ( 9.426999614876460059E-14, 3.149495543589892218E-32, 27.00000000000000000 ) ) ;
#27 = ADVANCED_FACE ( 'NONE', ( #96 ), #198, .T. ) ;
#28 = COORDINATED_UNIVERSAL_TIME_OFFSET ( 1, 0, .AHEAD. ) ;
#29 = ORIENTED_EDGE ( 'NONE', *, *, #199, .T. ) ;
#30 = AXIS2_PLACEMENT_3D ( 'NONE', #240, #69, #67 ) ;
#31 = PERSON_AND_ORGANIZATION ( #300, #223 ) ;
#32 = LOCAL_TIME ( 9, 22, 44.00000000000000000, #28 ) ;
#33 = EDGE_LOOP ( 'NONE', ( #53, #157, #214, #144 ) ) ;
#34 = PERSON_AND_ORGANIZATION_ROLE ( 'creator' ) ;
#35 = EDGE_LOOP ( 'NONE', ( #110, #135 ) ) ;
#36 = APPROVAL_ROLE ( '' ) ;
#37 = ORIENTED_EDGE ( 'NONE', *, *, #72, .F. ) ;
#38 = DIRECTION ( 'NONE',  ( 0.0000000000000000000, 0.0000000000000000000, 1.000000000000000000 ) ) ;
#39 = ORIENTED_EDGE ( 'NONE', *, *, #91, .T. ) ;
#40 = CARTESIAN_POINT ( 'NONE',  ( 9.426999614876460059E-14, -3.306546357697853733E-15, 27.00000000000000000 ) ) ;
#41 = PRODUCT_DEFINITION ( 'UNKNOWN', '', #189, #333 ) ;
#42 = DIRECTION ( 'NONE',  ( -3.491481338843133355E-15, 1.224646799147353207E-16, -1.000000000000000000 ) ) ;
#43 = DIRECTION ( 'NONE',  ( -3.491481338843133355E-15, 1.224646799147353207E-16, -1.000000000000000000 ) ) ;
#44 = VECTOR ( 'NONE', #181, 1000.000000000000000 ) ;
#45 = CARTESIAN_POINT ( 'NONE',  ( 2.748957990167462677E-13, -3.400000000000010125, 79.00000000000000000 ) ) ;
#46 = DIRECTION ( 'NONE',  ( 3.491481338843133355E-15, -1.224646799147353207E-16, 1.000000000000000000 ) ) ;
#47 = FACE_OUTER_BOUND ( 'NONE', #35, .T. ) ;
#48 = EDGE_CURVE ( 'NONE', #82, #129, #68, .T. ) ;
#49 = DIRECTION ( 'NONE',  ( 0.0000000000000000000, 1.000000000000000000, 0.0000000000000000000 ) ) ;
#50 = LINE ( 'NONE', #183, #150 ) ;
#51 = DIRECTION ( 'NONE',  ( -3.491481338843133355E-15, 1.224646799147353207E-16, -1.000000000000000000 ) ) ;
#52 = APPROVAL_DATE_TIME ( #80, #248 ) ;
#53 = ORIENTED_EDGE ( 'NONE', *, *, #287, .T. ) ;
#54 = PERSON_AND_ORGANIZATION ( #300, #223 ) ;
#55 = VERTEX_POINT ( 'NONE', #114 ) ;
#56 = MANIFOLD_SOLID_BREP ( 'Corps-Déplacer/Copier1[1]', #296 ) ;
#57 = AXIS2_PLACEMENT_3D ( 'NONE', #268, #64, #118 ) ;
#58 = PERSON_AND_ORGANIZATION_ROLE ( 'design_owner' ) ;
#59 = CONICAL_SURFACE ( 'NONE', #154, 3.400000000000000799, 0.7853981633974512766 ) ;
#60 = ORIENTED_EDGE ( 'NONE', *, *, #325, .T. ) ;
#61 = PERSON_AND_ORGANIZATION ( #300, #223 ) ;
#62 = ORIENTED_EDGE ( 'NONE', *, *, #304, .T. ) ;
#63 = DATE_AND_TIME ( #233, #120 ) ;
#64 = DIRECTION ( 'NONE',  ( -3.491481338843133355E-15, 1.224646799147353207E-16, -1.000000000000000000 ) ) ;
#65 = AXIS2_PLACEMENT_3D ( 'NONE', #101, #246, #151 ) ;
#66 = ORIENTED_EDGE ( 'NONE', *, *, #199, .F. ) ;
#67 = DIRECTION ( 'NONE',  ( 0.0000000000000000000, 1.000000000000000000, 0.0000000000000000000 ) ) ;
#68 = LINE ( 'NONE', #15, #9 ) ;
#69 = DIRECTION ( 'NONE',  ( -3.491481338843133355E-15, 1.224646799147353207E-16, -1.000000000000000000 ) ) ;
#70 = CARTESIAN_POINT ( 'NONE',  ( 9.426999614876460059E-14, -3.306546357697853733E-15, 27.00000000000000000 ) ) ;
#71 = DIRECTION ( 'NONE',  ( -3.491481338843133355E-15, 1.224646799147353207E-16, -1.000000000000000000 ) ) ;
#72 = EDGE_CURVE ( 'NONE', #5, #321, #170, .T. ) ;
#73 = AXIS2_PLACEMENT_3D ( 'NONE', #195, #250, #25 ) ;
#74 = CARTESIAN_POINT ( 'NONE',  ( 2.730338406975330915E-13, -9.576737969332302470E-15, 78.20000000000000284 ) ) ;
#75 = DIRECTION ( 'NONE',  ( -3.491481338843133355E-15, 1.224646799147353207E-16, -1.000000000000000000 ) ) ;
#76 = CARTESIAN_POINT ( 'NONE',  ( 2.730338406975330915E-13, -9.576737969332302470E-15, 78.20000000000000284 ) ) ;
#77 = PRODUCT ( '53059', '53059', '', ( #139 ) ) ;
#78 = CIRCLE ( 'NONE', #307, 4.199999999999994849 ) ;
#79 = CIRCLE ( 'NONE', #16, 4.200000000000000178 ) ;
#80 = DATE_AND_TIME ( #236, #309 ) ;
#81 = CARTESIAN_POINT ( 'NONE',  ( 0.0000000000000000000, 0.0000000000000000000, 0.0000000000000000000 ) ) ;
#82 = VERTEX_POINT ( 'NONE', #291 ) ;
#83 = APPROVAL_STATUS ( 'not_yet_approved' ) ;
#84 = EDGE_LOOP ( 'NONE', ( #211, #29, #237, #258 ) ) ;
#85 = CC_DESIGN_PERSON_AND_ORGANIZATION_ASSIGNMENT ( #31, #159, ( #189 ) ) ;
#86 = PRODUCT_DEFINITION_SHAPE ( 'NONE', 'NONE',  #41 ) ;
#87 = DATE_TIME_ROLE ( 'creation_date' ) ;
#88 = LOCAL_TIME ( 9, 22, 44.00000000000000000, #166 ) ;
#89 = ORIENTED_EDGE ( 'NONE', *, *, #99, .T. ) ;
#90 = ORIENTED_EDGE ( 'NONE', *, *, #205, .F. ) ;
#91 = EDGE_CURVE ( 'NONE', #171, #55, #19, .T. ) ;
#92 = EDGE_LOOP ( 'NONE', ( #281, #312 ) ) ;
#93 = AXIS2_PLACEMENT_3D ( 'NONE', #169, #298, #147 ) ;
#94 = PLANE ( 'NONE',  #73 ) ;
#95 = DIRECTION ( 'NONE',  ( -3.491481338843133355E-15, 1.224646799147353207E-16, -1.000000000000000000 ) ) ;
#96 = FACE_OUTER_BOUND ( 'NONE', #103, .T. ) ;
#97 = DIRECTION ( 'NONE',  ( 4.275831445896958607E-31, 1.000000000000000000, 1.224646799147353207E-16 ) ) ;
#98 = AXIS2_PLACEMENT_3D ( 'NONE', #153, #51, #301 ) ;
#99 = EDGE_CURVE ( 'NONE', #165, #316, #244, .T. ) ;
#100 = DIRECTION ( 'NONE',  ( -4.275831445896958607E-31, -1.000000000000000000, -1.224646799147353207E-16 ) ) ;
#101 = CARTESIAN_POINT ( 'NONE',  ( 2.758270257686075477E-13, 2.549591630525144249E-32, 79.00000000000000000 ) ) ;
#102 = DIRECTION ( 'NONE',  ( -3.491481338843133355E-15, 1.224646799147353207E-16, -1.000000000000000000 ) ) ;
#103 = EDGE_LOOP ( 'NONE', ( #260, #106, #231, #133 ) ) ;
#104 = DATE_AND_TIME ( #107, #88 ) ;
#105 = ADVANCED_FACE ( 'NONE', ( #197 ), #177, .T. ) ;
#106 = ORIENTED_EDGE ( 'NONE', *, *, #163, .T. ) ;
#107 = CALENDAR_DATE ( 2021, 3, 9 ) ;
#108 = ORIENTED_EDGE ( 'NONE', *, *, #329, .F. ) ;
#109 = COORDINATED_UNIVERSAL_TIME_OFFSET ( 1, 0, .AHEAD. ) ;
#110 = ORIENTED_EDGE ( 'NONE', *, *, #136, .T. ) ;
#111 = ADVANCED_FACE ( 'NONE', ( #141 ), #179, .T. ) ;
#112 = VERTEX_POINT ( 'NONE', #45 ) ;
#113 = CARTESIAN_POINT ( 'NONE',  ( 1.795849207276721599E-30, 4.199999999999997513, 5.143516556418879970E-16 ) ) ;
#114 = CARTESIAN_POINT ( 'NONE',  ( 8.811153282038007760E-15, -4.199999999999991296, 2.523614599915775081 ) ) ;
#115 = LOCAL_TIME ( 9, 22, 44.00000000000000000, #209 ) ;
#116 = CARTESIAN_POINT ( 'NONE',  ( 9.426999614876460059E-14, -3.306546357697853733E-15, 27.00000000000000000 ) ) ;
#117 = EDGE_CURVE ( 'NONE', #5, #313, #78, .T. ) ;
#118 = DIRECTION ( 'NONE',  ( 4.275831445896958607E-31, 1.000000000000000000, 1.224646799147352961E-16 ) ) ;
#119 = CARTESIAN_POINT ( 'NONE',  ( 0.0000000000000000000, 0.0000000000000000000, 0.0000000000000000000 ) ) ;
#120 = LOCAL_TIME ( 9, 22, 44.00000000000000000, #4 ) ;
#121 = EDGE_CURVE ( 'NONE', #112, #82, #265, .T. ) ;
#122 = DIRECTION ( 'NONE',  ( 4.275831445896958607E-31, 1.000000000000000000, 1.224646799147353207E-16 ) ) ;
#123 = DIRECTION ( 'NONE',  ( 0.0000000000000000000, 1.000000000000000000, 0.0000000000000000000 ) ) ;
#124 = CARTESIAN_POINT ( 'NONE',  ( 8.811153282038009338E-15, -3.090536542068382699E-16, 2.523614599915775525 ) ) ;
#125 = AXIS2_PLACEMENT_3D ( 'NONE', #229, #182, #122 ) ;
#126 = DIRECTION ( 'NONE',  ( 0.0000000000000000000, 1.000000000000000000, 0.0000000000000000000 ) ) ;
#127 = DIRECTION ( 'NONE',  ( -3.668437989309028221E-31, -1.000000000000000000, -1.032573497605244443E-16 ) ) ;
#128 = APPROVAL_STATUS ( 'not_yet_approved' ) ;
#129 = VERTEX_POINT ( 'NONE', #241 ) ;
#130 = EDGE_CURVE ( 'NONE', #316, #320, #224, .T. ) ;
#131 = APPROVAL_ROLE ( '' ) ;
#132 = APPROVAL_STATUS ( 'not_yet_approved' ) ;
#133 = ORIENTED_EDGE ( 'NONE', *, *, #318, .F. ) ;
#134 = PERSON_AND_ORGANIZATION_ROLE ( 'classification_officer' ) ;
#135 = ORIENTED_EDGE ( 'NONE', *, *, #208, .T. ) ;
#136 = EDGE_CURVE ( 'NONE', #320, #129, #210, .T. ) ;
#137 = VECTOR ( 'NONE', #330, 1000.000000000000000 ) ;
#138 = APPROVAL_PERSON_ORGANIZATION ( #61, #248, #131 ) ;
#139 = MECHANICAL_CONTEXT ( 'NONE', #235, 'mechanical' ) ;
#140 = ORIENTED_EDGE ( 'NONE', *, *, #329, .T. ) ;
#141 = FACE_OUTER_BOUND ( 'NONE', #167, .T. ) ;
#142 = CARTESIAN_POINT ( 'NONE',  ( 8.811153282038009338E-15, -3.090536542068382699E-16, 2.523614599915775525 ) ) ;
#143 = APPROVAL ( #132, 'UNSPECIFIED' ) ;
#144 = ORIENTED_EDGE ( 'NONE', *, *, #99, .F. ) ;
#145 = CIRCLE ( 'NONE', #98, 4.199999999999991296 ) ;
#146 = DIRECTION ( 'NONE',  ( -3.491481338843133355E-15, 1.224646799147353207E-16, -1.000000000000000000 ) ) ;
#147 = DIRECTION ( 'NONE',  ( 4.275831445896958607E-31, 1.000000000000000000, 1.224646799147352961E-16 ) ) ;
#148 =( NAMED_UNIT ( * ) PLANE_ANGLE_UNIT ( ) SI_UNIT ( $, .RADIAN. ) );
#149 = AXIS2_PLACEMENT_3D ( 'NONE', #116, #243, #202 ) ;
#150 = VECTOR ( 'NONE', #331, 999.9999999999998863 ) ;
#151 = DIRECTION ( 'NONE',  ( 4.275831445896958607E-31, 1.000000000000000000, 1.224646799147353207E-16 ) ) ;
#152 = CARTESIAN_POINT ( 'NONE',  ( 2.758270257686075477E-13, -9.674709713264090904E-15, 79.00000000000000000 ) ) ;
#153 = CARTESIAN_POINT ( 'NONE',  ( 8.811153282038009338E-15, -3.090536542068382699E-16, 2.523614599915775525 ) ) ;
#154 = AXIS2_PLACEMENT_3D ( 'NONE', #23, #75, #49 ) ;
#155 = DIRECTION ( 'NONE',  ( -3.491481338843133355E-15, 1.224646799147353207E-16, -1.000000000000000000 ) ) ;
#156 = SHAPE_DEFINITION_REPRESENTATION ( #86, #315 ) ;
#157 = ORIENTED_EDGE ( 'NONE', *, *, #121, .T. ) ;
#158 = ADVANCED_FACE ( 'NONE', ( #193 ), #220, .T. ) ;
#159 = PERSON_AND_ORGANIZATION_ROLE ( 'creator' ) ;
#160 = ORIENTED_EDGE ( 'NONE', *, *, #163, .F. ) ;
#161 = CIRCLE ( 'NONE', #263, 3.400000000000000799 ) ;
#162 = EDGE_LOOP ( 'NONE', ( #280, #62, #89, #66 ) ) ;
#163 = EDGE_CURVE ( 'NONE', #313, #5, #232, .T. ) ;
#164 = CALENDAR_DATE ( 2021, 3, 9 ) ;
#165 = VERTEX_POINT ( 'NONE', #245 ) ;
#166 = COORDINATED_UNIVERSAL_TIME_OFFSET ( 1, 0, .AHEAD. ) ;
#167 = EDGE_LOOP ( 'NONE', ( #218, #140, #191 ) ) ;
#168 = VECTOR ( 'NONE', #219, 1000.000000000000114 ) ;
#169 = CARTESIAN_POINT ( 'NONE',  ( 0.0000000000000000000, 0.0000000000000000000, 0.0000000000000000000 ) ) ;
#170 = LINE ( 'NONE', #266, #276 ) ;
#171 = VERTEX_POINT ( 'NONE', #119 ) ;
#172 = UNCERTAINTY_MEASURE_WITH_UNIT (LENGTH_MEASURE( 1.000000000000000082E-05 ), #299, 'distance_accuracy_value', 'NONE');
#173 = AXIS2_PLACEMENT_3D ( 'NONE', #264, #42, #97 ) ;
#174 = CARTESIAN_POINT ( 'NONE',  ( 2.758270257686075477E-13, -9.674709713264090904E-15, 79.00000000000000000 ) ) ;
#175 = CC_DESIGN_SECURITY_CLASSIFICATION ( #267, ( #189 ) ) ;
#176 = ADVANCED_FACE ( 'NONE', ( #13 ), #94, .T. ) ;
#177 = CYLINDRICAL_SURFACE ( 'NONE', #173, 4.199999999999997513 ) ;
#178 = DIRECTION ( 'NONE',  ( 0.0000000000000000000, 1.000000000000000000, 0.0000000000000000000 ) ) ;
#179 = CONICAL_SURFACE ( 'NONE', #24, 4.199999999999991296, 1.029744258676649649 ) ;
#180 = APPROVAL_PERSON_ORGANIZATION ( #190, #143, #310 ) ;
#181 = DIRECTION ( 'NONE',  ( -3.491481338843133355E-15, 1.224646799147353207E-16, -1.000000000000000000 ) ) ;
#182 = DIRECTION ( 'NONE',  ( -3.491481338843133355E-15, 1.224646799147353207E-16, -1.000000000000000000 ) ) ;
#183 = CARTESIAN_POINT ( 'NONE',  ( 9.325504937679898222E-15, 4.199999999999991296, 2.523614599915775969 ) ) ;
#184 = AXIS2_PLACEMENT_3D ( 'NONE', #70, #155, #123 ) ;
#185 = APPROVAL_DATE_TIME ( #257, #143 ) ;
#186 = ADVANCED_FACE ( 'NONE', ( #226 ), #251, .T. ) ;
#187 = PERSON_AND_ORGANIZATION ( #300, #223 ) ;
#188 = EDGE_LOOP ( 'NONE', ( #217, #286, #90, #37 ) ) ;
#189 = PRODUCT_DEFINITION_FORMATION_WITH_SPECIFIED_SOURCE ( 'ANY', '', #77, .NOT_KNOWN. ) ;
#190 = PERSON_AND_ORGANIZATION ( #300, #223 ) ;
#191 = ORIENTED_EDGE ( 'NONE', *, *, #205, .T. ) ;
#192 =( NAMED_UNIT ( * ) SI_UNIT ( $, .STERADIAN. ) SOLID_ANGLE_UNIT ( ) );
#193 = FACE_OUTER_BOUND ( 'NONE', #188, .T. ) ;
#194 = AXIS2_PLACEMENT_3D ( 'NONE', #277, #21, #127 ) ;
#195 = CARTESIAN_POINT ( 'NONE',  ( 9.426999614876460059E-14, 3.149495543589892218E-32, 27.00000000000000000 ) ) ;
#196 = ADVANCED_FACE ( 'NONE', ( #332 ), #275, .F. ) ;
#197 = FACE_OUTER_BOUND ( 'NONE', #212, .T. ) ;
#198 = CYLINDRICAL_SURFACE ( 'NONE', #57, 4.199999999999993072 ) ;
#199 = EDGE_CURVE ( 'NONE', #82, #316, #204, .T. ) ;
#200 = CLOSED_SHELL ( 'NONE', ( #158, #111, #186, #27, #176 ) ) ;
#201 = CIRCLE ( 'NONE', #284, 4.199999999999991296 ) ;
#202 = DIRECTION ( 'NONE',  ( 0.0000000000000000000, 1.000000000000000000, 0.0000000000000000000 ) ) ;
#203 = LINE ( 'NONE', #303, #44 ) ;
#204 = CIRCLE ( 'NONE', #297, 4.200000000000000178 ) ;
#205 = EDGE_CURVE ( 'NONE', #321, #55, #145, .T. ) ;
#206 = CARTESIAN_POINT ( 'NONE',  ( 9.325504937679898222E-15, 4.199999999999991296, 2.523614599915775969 ) ) ;
#207 = DIRECTION ( 'NONE',  ( 0.0000000000000000000, 1.000000000000000000, 0.0000000000000000000 ) ) ;
#208 = EDGE_CURVE ( 'NONE', #129, #320, #334, .T. ) ;
#209 = COORDINATED_UNIVERSAL_TIME_OFFSET ( 1, 0, .AHEAD. ) ;
#210 = CIRCLE ( 'NONE', #149, 4.199999999999994849 ) ;
#211 = ORIENTED_EDGE ( 'NONE', *, *, #48, .F. ) ;
#212 = EDGE_LOOP ( 'NONE', ( #60, #253, #283, #295 ) ) ;
#213 = PERSON_AND_ORGANIZATION ( #300, #223 ) ;
#214 = ORIENTED_EDGE ( 'NONE', *, *, #325, .F. ) ;
#215 = AXIS2_PLACEMENT_3D ( 'NONE', #81, #38, #6 ) ;
#216 = APPLICATION_PROTOCOL_DEFINITION ( 'international standard', 'config_control_design', 1994, #292 ) ;
#217 = ORIENTED_EDGE ( 'NONE', *, *, #117, .T. ) ;
#218 = ORIENTED_EDGE ( 'NONE', *, *, #91, .F. ) ;
#219 = DIRECTION ( 'NONE',  ( -2.382254525458708792E-15, -0.7071067811865495711, -0.7071067811865455743 ) ) ;
#220 = CYLINDRICAL_SURFACE ( 'NONE', #93, 4.199999999999993072 ) ;
#221 = CARTESIAN_POINT ( 'NONE',  ( 8.811153282038007760E-15, -4.199999999999991296, 2.523614599915775081 ) ) ;
#222 = CARTESIAN_POINT ( 'NONE',  ( 2.762434056803176623E-13, -3.400000000000010125, 79.00000000000000000 ) ) ;
#223 = ORGANIZATION ( 'UNSPECIFIED', 'UNSPECIFIED', '' ) ;
#224 = LINE ( 'NONE', #113, #290 ) ;
#225 = DIRECTION ( 'NONE',  ( 3.491481338843133355E-15, -1.224646799147353207E-16, 1.000000000000000000 ) ) ;
#226 = FACE_OUTER_BOUND ( 'NONE', #7, .T. ) ;
#227 = DIRECTION ( 'NONE',  ( -3.491481338843133355E-15, 1.224646799147353207E-16, -1.000000000000000000 ) ) ;
#228 = AXIS2_PLACEMENT_3D ( 'NONE', #152, #102, #126 ) ;
#229 = CARTESIAN_POINT ( 'NONE',  ( 0.0000000000000000000, 0.0000000000000000000, 0.0000000000000000000 ) ) ;
#230 = DIRECTION ( 'NONE',  ( 0.0000000000000000000, 1.000000000000000000, 0.0000000000000000000 ) ) ;
#231 = ORIENTED_EDGE ( 'NONE', *, *, #72, .T. ) ;
#232 = CIRCLE ( 'NONE', #30, 4.199999999999994849 ) ;
#233 = CALENDAR_DATE ( 2021, 3, 9 ) ;
#234 = CC_DESIGN_PERSON_AND_ORGANIZATION_ASSIGNMENT ( #54, #134, ( #267 ) ) ;
#235 = APPLICATION_CONTEXT ( 'configuration controlled 3d designs of mechanical parts and assemblies' ) ;
#236 = CALENDAR_DATE ( 2021, 3, 9 ) ;
#237 = ORIENTED_EDGE ( 'NONE', *, *, #130, .T. ) ;
#238 = CIRCLE ( 'NONE', #228, 3.400000000000000799 ) ;
#239 = ADVANCED_FACE ( 'NONE', ( #20 ), #273, .T. ) ;
#240 = CARTESIAN_POINT ( 'NONE',  ( 9.426999614876460059E-14, -3.306546357697853733E-15, 27.00000000000000000 ) ) ;
#241 = CARTESIAN_POINT ( 'NONE',  ( 1.841662700787906844E-13, -4.199999999999998401, 27.00000000000000000 ) ) ;
#242 = ADVANCED_FACE ( 'NONE', ( #47 ), #247, .F. ) ;
#243 = DIRECTION ( 'NONE',  ( -3.491481338843133355E-15, 1.224646799147353207E-16, -1.000000000000000000 ) ) ;
#244 = LINE ( 'NONE', #269, #262 ) ;
#245 = CARTESIAN_POINT ( 'NONE',  ( 2.758270257686075477E-13, 3.399999999999991029, 79.00000000000000000 ) ) ;
#246 = DIRECTION ( 'NONE',  ( -3.491481338843133355E-15, 1.224646799147353207E-16, -1.000000000000000000 ) ) ;
#247 = PLANE ( 'NONE',  #328 ) ;
#248 = APPROVAL ( #128, 'UNSPECIFIED' ) ;
#249 = DIRECTION ( 'NONE',  ( -3.491481338843133355E-15, 1.224646799147353207E-16, -1.000000000000000000 ) ) ;
#250 = DIRECTION ( 'NONE',  ( 3.491481338843133355E-15, -1.224646799147353207E-16, 1.000000000000000000 ) ) ;
#251 = CONICAL_SURFACE ( 'NONE', #194, 4.199999999999991296, 1.029744258676649649 ) ;
#252 = CARTESIAN_POINT ( 'NONE',  ( 2.730338406975330915E-13, 4.199999999999991296, 78.20000000000000284 ) ) ;
#253 = ORIENTED_EDGE ( 'NONE', *, *, #48, .T. ) ;
#254 = ORIENTED_EDGE ( 'NONE', *, *, #318, .T. ) ;
#255 = EDGE_CURVE ( 'NONE', #313, #55, #203, .T. ) ;
#256 = APPROVAL_DATE_TIME ( #63, #14 ) ;
#257 = DATE_AND_TIME ( #337, #32 ) ;
#258 = ORIENTED_EDGE ( 'NONE', *, *, #208, .F. ) ;
#259 = DATE_AND_TIME ( #164, #115 ) ;
#260 = ORIENTED_EDGE ( 'NONE', *, *, #255, .F. ) ;
#261 = CC_DESIGN_PERSON_AND_ORGANIZATION_ASSIGNMENT ( #279, #58, ( #77 ) ) ;
#262 = VECTOR ( 'NONE', #327, 1000.000000000000114 ) ;
#263 = AXIS2_PLACEMENT_3D ( 'NONE', #336, #249, #207 ) ;
#264 = CARTESIAN_POINT ( 'NONE',  ( 0.0000000000000000000, 0.0000000000000000000, 0.0000000000000000000 ) ) ;
#265 = LINE ( 'NONE', #222, #168 ) ;
#266 = CARTESIAN_POINT ( 'NONE',  ( 1.795849207276719497E-30, 4.199999999999993072, 5.143516556418874053E-16 ) ) ;
#267 = SECURITY_CLASSIFICATION ( '', '', #308 ) ;
#268 = CARTESIAN_POINT ( 'NONE',  ( 0.0000000000000000000, 0.0000000000000000000, 0.0000000000000000000 ) ) ;
#269 = CARTESIAN_POINT ( 'NONE',  ( 2.758270257686075477E-13, 3.399999999999991029, 79.00000000000000000 ) ) ;
#270 = MANIFOLD_SOLID_BREP ( 'Corps-Déplacer/Copier1[2]', #200 ) ;
#271 = CARTESIAN_POINT ( 'NONE',  ( 5.205492637104314967E-14, -4.199999999999998401, 27.00000000000000000 ) ) ;
#272 = CC_DESIGN_APPROVAL ( #143, ( #189 ) ) ;
#273 = CYLINDRICAL_SURFACE ( 'NONE', #125, 4.199999999999997513 ) ;
#274 = FACE_OUTER_BOUND ( 'NONE', #33, .T. ) ;
#275 = PLANE ( 'NONE',  #65 ) ;
#276 = VECTOR ( 'NONE', #43, 1000.000000000000000 ) ;
#277 = CARTESIAN_POINT ( 'NONE',  ( 8.811153282038009338E-15, -3.090536542068382699E-16, 2.523614599915775525 ) ) ;
#278 = CC_DESIGN_APPROVAL ( #14, ( #41 ) ) ;
#279 = PERSON_AND_ORGANIZATION ( #300, #223 ) ;
#280 = ORIENTED_EDGE ( 'NONE', *, *, #121, .F. ) ;
#281 = ORIENTED_EDGE ( 'NONE', *, *, #287, .F. ) ;
#282 = ADVANCED_FACE ( 'NONE', ( #274 ), #59, .T. ) ;
#283 = ORIENTED_EDGE ( 'NONE', *, *, #136, .F. ) ;
#284 = AXIS2_PLACEMENT_3D ( 'NONE', #124, #227, #306 ) ;
#285 = DATE_TIME_ROLE ( 'classification_date' ) ;
#286 = ORIENTED_EDGE ( 'NONE', *, *, #255, .T. ) ;
#287 = EDGE_CURVE ( 'NONE', #165, #112, #238, .T. ) ;
#288 = PERSON_AND_ORGANIZATION ( #300, #223 ) ;
#289 = DIRECTION ( 'NONE',  ( -3.491481338843133355E-15, 1.224646799147353207E-16, -1.000000000000000000 ) ) ;
#290 = VECTOR ( 'NONE', #17, 1000.000000000000000 ) ;
#291 = CARTESIAN_POINT ( 'NONE',  ( 1.841662700787905582E-13, -4.200000000000010836, 78.20000000000000284 ) ) ;
#292 = APPLICATION_CONTEXT ( 'configuration controlled 3d designs of mechanical parts and assemblies' ) ;
#293 = DIRECTION ( 'NONE',  ( -3.668437989309028221E-31, -1.000000000000000000, -1.032573497605244443E-16 ) ) ;
#294 = CC_DESIGN_PERSON_AND_ORGANIZATION_ASSIGNMENT ( #187, #34, ( #41 ) ) ;
#295 = ORIENTED_EDGE ( 'NONE', *, *, #130, .F. ) ;
#296 = CLOSED_SHELL ( 'NONE', ( #282, #105, #242, #239, #1, #196 ) ) ;
#297 = AXIS2_PLACEMENT_3D ( 'NONE', #74, #71, #178 ) ;
#298 = DIRECTION ( 'NONE',  ( -3.491481338843133355E-15, 1.224646799147353207E-16, -1.000000000000000000 ) ) ;
#299 =( LENGTH_UNIT ( ) NAMED_UNIT ( * ) SI_UNIT ( .MILLI., .METRE. ) );
#300 = PERSON ( 'UNSPECIFIED', 'UNSPECIFIED', 'UNSPECIFIED', ('UNSPECIFIED'), ('UNSPECIFIED'), ('UNSPECIFIED') ) ;
#301 = DIRECTION ( 'NONE',  ( 3.668437989309028221E-31, 1.000000000000000000, 1.032573497605244443E-16 ) ) ;
#302 = AXIS2_PLACEMENT_3D ( 'NONE', #174, #289, #18 ) ;
#303 = CARTESIAN_POINT ( 'NONE',  ( 5.143516556418857290E-16, -4.199999999999993072, -5.143516556418892789E-16 ) ) ;
#304 = EDGE_CURVE ( 'NONE', #112, #165, #161, .T. ) ;
#305 = DIRECTION ( 'NONE',  ( -3.491481338843133355E-15, 1.224646799147353207E-16, -1.000000000000000000 ) ) ;
#306 = DIRECTION ( 'NONE',  ( 3.668437989309028221E-31, 1.000000000000000000, 1.032573497605244443E-16 ) ) ;
#307 = AXIS2_PLACEMENT_3D ( 'NONE', #40, #146, #322 ) ;
#308 = SECURITY_CLASSIFICATION_LEVEL ( 'unclassified' ) ;
#309 = LOCAL_TIME ( 9, 22, 44.00000000000000000, #109 ) ;
#310 = APPROVAL_ROLE ( '' ) ;
#311 = CC_DESIGN_DATE_AND_TIME_ASSIGNMENT ( #104, #87, ( #41 ) ) ;
#312 = ORIENTED_EDGE ( 'NONE', *, *, #304, .F. ) ;
#313 = VERTEX_POINT ( 'NONE', #271 ) ;
#314 = CC_DESIGN_DATE_AND_TIME_ASSIGNMENT ( #259, #285, ( #267 ) ) ;
#315 = ADVANCED_BREP_SHAPE_REPRESENTATION ( '53059', ( #56, #270, #215 ), #317 ) ;
#316 = VERTEX_POINT ( 'NONE', #252 ) ;
#317 =( GEOMETRIC_REPRESENTATION_CONTEXT ( 3 ) GLOBAL_UNCERTAINTY_ASSIGNED_CONTEXT ( ( #172 ) ) GLOBAL_UNIT_ASSIGNED_CONTEXT ( ( #299, #148, #192 ) ) REPRESENTATION_CONTEXT ( 'NONE', 'WORKASPACE' ) );
#318 = EDGE_CURVE ( 'NONE', #55, #321, #201, .T. ) ;
#319 = APPLICATION_PROTOCOL_DEFINITION ( 'international standard', 'config_control_design', 1994, #235 ) ;
#320 = VERTEX_POINT ( 'NONE', #335 ) ;
#321 = VERTEX_POINT ( 'NONE', #206 ) ;
#322 = DIRECTION ( 'NONE',  ( 0.0000000000000000000, 1.000000000000000000, 0.0000000000000000000 ) ) ;
#323 = CONICAL_SURFACE ( 'NONE', #302, 3.400000000000000799, 0.7853981633974512766 ) ;
#324 = CARTESIAN_POINT ( 'NONE',  ( 9.426999614876460059E-14, 4.199999999999991296, 27.00000000000000000 ) ) ;
#325 = EDGE_CURVE ( 'NONE', #316, #82, #79, .T. ) ;
#326 = FACE_OUTER_BOUND ( 'NONE', #162, .T. ) ;
#327 = DIRECTION ( 'NONE',  ( -2.468850131082257455E-15, 0.7071067811865497932, -0.7071067811865453523 ) ) ;
#328 = AXIS2_PLACEMENT_3D ( 'NONE', #26, #225, #100 ) ;
#329 = EDGE_CURVE ( 'NONE', #171, #321, #50, .T. ) ;
#330 = DIRECTION ( 'NONE',  ( 1.798245827342160317E-15, -0.8571673007021098911, 0.5150380749100582634 ) ) ;
#331 = DIRECTION ( 'NONE',  ( 1.903218546456022717E-15, 0.8571673007021097801, 0.5150380749100585964 ) ) ;
#332 = FACE_OUTER_BOUND ( 'NONE', #92, .T. ) ;
#333 = DESIGN_CONTEXT ( 'detailed design', #292, 'design' ) ;
#334 = CIRCLE ( 'NONE', #184, 4.199999999999994849 ) ;
#335 = CARTESIAN_POINT ( 'NONE',  ( 9.426999614876460059E-14, 4.199999999999991296, 27.00000000000000000 ) ) ;
#336 = CARTESIAN_POINT ( 'NONE',  ( 2.758270257686075477E-13, -9.674709713264090904E-15, 79.00000000000000000 ) ) ;
#337 = CALENDAR_DATE ( 2021, 3, 9 ) ;
ENDSEC;
END-ISO-10303-21;
