ISO-10303-21;
HEADER;
FILE_DESCRIPTION (( 'STEP AP203' ),
    '1' );
FILE_NAME ('53058.step',
    '2021-09-03T07:22:43',
    ( '' ),
    ( '' ),
    'SwSTEP 2.0',
    'SolidWorks 2019',
    '' );
FILE_SCHEMA (( 'CONFIG_CONTROL_DESIGN' ));
ENDSEC;

DATA;
#1 = DIRECTION ( 'NONE',  ( -3.491481338843133355E-15, 1.224646799147353207E-16, -1.000000000000000000 ) ) ;
#2 = ORIENTED_EDGE ( 'NONE', *, *, #103, .T. ) ;
#3 = AXIS2_PLACEMENT_3D ( 'NONE', #78, #177, #51 ) ;
#4 = APPROVAL_STATUS ( 'not_yet_approved' ) ;
#5 = ORIENTED_EDGE ( 'NONE', *, *, #178, .F. ) ;
#6 = EDGE_CURVE ( 'NONE', #36, #140, #142, .T. ) ;
#7 = CALENDAR_DATE ( 2021, 3, 9 ) ;
#8 = VERTEX_POINT ( 'NONE', #296 ) ;
#9 = ORIENTED_EDGE ( 'NONE', *, *, #6, .F. ) ;
#10 = AXIS2_PLACEMENT_3D ( 'NONE', #147, #176, #19 ) ;
#11 = EDGE_LOOP ( 'NONE', ( #188, #215, #222, #117 ) ) ;
#12 = PRODUCT_DEFINITION ( 'UNKNOWN', '', #34, #174 ) ;
#13 = ORIENTED_EDGE ( 'NONE', *, *, #6, .T. ) ;
#14 = ORIENTED_EDGE ( 'NONE', *, *, #110, .F. ) ;
#15 = CARTESIAN_POINT ( 'NONE',  ( 2.758270257686075477E-13, 2.437109646825504381E-32, 79.00000000000000000 ) ) ;
#16 = CIRCLE ( 'NONE', #86, 4.049999999999993605 ) ;
#17 = CARTESIAN_POINT ( 'NONE',  ( 5.187921464616240302E-14, -4.049999999999997158, 27.00000000000000000 ) ) ;
#18 = CARTESIAN_POINT ( 'NONE',  ( 8.496469236250938477E-15, -2.980160236994511589E-16, 2.433485507061640352 ) ) ;
#19 = DIRECTION ( 'NONE',  ( 0.0000000000000000000, 1.000000000000000000, 0.0000000000000000000 ) ) ;
#20 = EDGE_CURVE ( 'NONE', #319, #218, #175, .T. ) ;
#21 = AXIS2_PLACEMENT_3D ( 'NONE', #278, #196, #101 ) ;
#22 = CARTESIAN_POINT ( 'NONE',  ( 2.730338406975330915E-13, 4.049999999999990052, 78.20000000000000284 ) ) ;
#23 = CONICAL_SURFACE ( 'NONE', #169, 3.250000000000000000, 0.7853981633974512766 ) ;
#24 = CARTESIAN_POINT ( 'NONE',  ( 0.0000000000000000000, 0.0000000000000000000, 0.0000000000000000000 ) ) ;
#25 = DIRECTION ( 'NONE',  ( -4.275831445896958607E-31, -1.000000000000000000, -1.224646799147353207E-16 ) ) ;
#26 = CARTESIAN_POINT ( 'NONE',  ( 0.0000000000000000000, 0.0000000000000000000, 0.0000000000000000000 ) ) ;
#27 = AXIS2_PLACEMENT_3D ( 'NONE', #15, #302, #328 ) ;
#28 = CC_DESIGN_APPROVAL ( #306, ( #34 ) ) ;
#29 = CIRCLE ( 'NONE', #156, 4.049999999999999822 ) ;
#30 = DIRECTION ( 'NONE',  ( 0.0000000000000000000, 1.000000000000000000, 0.0000000000000000000 ) ) ;
#31 = DIRECTION ( 'NONE',  ( 0.0000000000000000000, 1.000000000000000000, 0.0000000000000000000 ) ) ;
#32 = COORDINATED_UNIVERSAL_TIME_OFFSET ( 1, 0, .AHEAD. ) ;
#33 = ADVANCED_FACE ( 'NONE', ( #300 ), #144, .T. ) ;
#34 = PRODUCT_DEFINITION_FORMATION_WITH_SPECIFIED_SOURCE ( 'ANY', '', #84, .NOT_KNOWN. ) ;
#35 = APPROVAL_DATE_TIME ( #288, #39 ) ;
#36 = VERTEX_POINT ( 'NONE', #43 ) ;
#37 = PERSON_AND_ORGANIZATION ( #67, #183 ) ;
#38 = ORIENTED_EDGE ( 'NONE', *, *, #129, .T. ) ;
#39 = APPROVAL ( #190, 'UNSPECIFIED' ) ;
#40 = VERTEX_POINT ( 'NONE', #330 ) ;
#41 = CALENDAR_DATE ( 2021, 3, 9 ) ;
#42 = ORIENTED_EDGE ( 'NONE', *, *, #225, .T. ) ;
#43 = CARTESIAN_POINT ( 'NONE',  ( 8.496469236250936900E-15, -4.049999999999990052, 2.433485507061639908 ) ) ;
#44 = DIRECTION ( 'NONE',  ( -3.491481338843133355E-15, 1.224646799147353207E-16, -1.000000000000000000 ) ) ;
#45 = EDGE_LOOP ( 'NONE', ( #14, #245 ) ) ;
#46 = CONICAL_SURFACE ( 'NONE', #200, 4.049999999999990052, 1.029744258676649649 ) ;
#47 = AXIS2_PLACEMENT_3D ( 'NONE', #87, #153, #25 ) ;
#48 = CARTESIAN_POINT ( 'NONE',  ( 4.959819536546753976E-16, -4.049999999999991829, -4.959819536546787503E-16 ) ) ;
#49 = DIRECTION ( 'NONE',  ( -2.382254525458708792E-15, -0.7071067811865495711, -0.7071067811865455743 ) ) ;
#50 = EDGE_CURVE ( 'NONE', #218, #294, #250, .T. ) ;
#51 = DIRECTION ( 'NONE',  ( 0.0000000000000000000, 1.000000000000000000, 0.0000000000000000000 ) ) ;
#52 = CYLINDRICAL_SURFACE ( 'NONE', #284, 4.049999999999996270 ) ;
#53 =( NAMED_UNIT ( * ) SI_UNIT ( $, .STERADIAN. ) SOLID_ANGLE_UNIT ( ) );
#54 = CLOSED_SHELL ( 'NONE', ( #259, #151, #291, #211, #331 ) ) ;
#55 = AXIS2_PLACEMENT_3D ( 'NONE', #85, #286, #235 ) ;
#56 = DIRECTION ( 'NONE',  ( 4.275831445896958607E-31, 1.000000000000000000, 1.224646799147353207E-16 ) ) ;
#57 = CC_DESIGN_DATE_AND_TIME_ASSIGNMENT ( #88, #320, ( #12 ) ) ;
#58 = MANIFOLD_SOLID_BREP ( 'Corps-Déplacer/Copier1[1]', #298 ) ;
#59 = ORIENTED_EDGE ( 'NONE', *, *, #178, .T. ) ;
#60 = AXIS2_PLACEMENT_3D ( 'NONE', #152, #255, #205 ) ;
#61 = APPROVAL_ROLE ( '' ) ;
#62 = ORIENTED_EDGE ( 'NONE', *, *, #165, .T. ) ;
#63 = MANIFOLD_SOLID_BREP ( 'Corps-Déplacer/Copier1[2]', #54 ) ;
#64 = CALENDAR_DATE ( 2021, 3, 9 ) ;
#65 = ORIENTED_EDGE ( 'NONE', *, *, #143, .F. ) ;
#66 = PERSON_AND_ORGANIZATION_ROLE ( 'classification_officer' ) ;
#67 = PERSON ( 'UNSPECIFIED', 'UNSPECIFIED', 'UNSPECIFIED', ('UNSPECIFIED'), ('UNSPECIFIED'), ('UNSPECIFIED') ) ;
#68 = ORIENTED_EDGE ( 'NONE', *, *, #143, .T. ) ;
#69 = AXIS2_PLACEMENT_3D ( 'NONE', #26, #185, #258 ) ;
#70 = ORIENTED_EDGE ( 'NONE', *, *, #103, .F. ) ;
#71 = EDGE_LOOP ( 'NONE', ( #192, #2, #162, #65 ) ) ;
#72 = DIRECTION ( 'NONE',  ( -3.491481338843133355E-15, 1.224646799147353207E-16, -1.000000000000000000 ) ) ;
#73 = DIRECTION ( 'NONE',  ( -3.491481338843133355E-15, 1.224646799147353207E-16, -1.000000000000000000 ) ) ;
#74 = VECTOR ( 'NONE', #49, 1000.000000000000114 ) ;
#75 = APPROVAL_PERSON_ORGANIZATION ( #269, #39, #163 ) ;
#76 = DIRECTION ( 'NONE',  ( -3.491481338843133355E-15, 1.224646799147353207E-16, -1.000000000000000000 ) ) ;
#77 = EDGE_CURVE ( 'NONE', #123, #289, #16, .T. ) ;
#78 = CARTESIAN_POINT ( 'NONE',  ( 2.758270257686075477E-13, -9.674709713264090904E-15, 79.00000000000000000 ) ) ;
#79 = DIRECTION ( 'NONE',  ( 1.903218546456022717E-15, 0.8571673007021097801, 0.5150380749100585964 ) ) ;
#80 = CIRCLE ( 'NONE', #317, 4.049999999999993605 ) ;
#81 = CARTESIAN_POINT ( 'NONE',  ( 1.841479003768033896E-13, -4.050000000000009592, 78.20000000000000284 ) ) ;
#82 = DIRECTION ( 'NONE',  ( -3.804306062987141999E-31, -1.000000000000000000, -1.070816960479513212E-16 ) ) ;
#83 = MECHANICAL_CONTEXT ( 'NONE', #337, 'mechanical' ) ;
#84 = PRODUCT ( '53058', '53058', '', ( #83 ) ) ;
#85 = CARTESIAN_POINT ( 'NONE',  ( 2.758270257686075477E-13, -9.674709713264090904E-15, 79.00000000000000000 ) ) ;
#86 = AXIS2_PLACEMENT_3D ( 'NONE', #303, #73, #329 ) ;
#87 = CARTESIAN_POINT ( 'NONE',  ( 9.426999614876460059E-14, 3.037013559890252077E-32, 27.00000000000000000 ) ) ;
#88 = DATE_AND_TIME ( #219, #105 ) ;
#89 = ORIENTED_EDGE ( 'NONE', *, *, #309, .T. ) ;
#90 = COORDINATED_UNIVERSAL_TIME_OFFSET ( 1, 0, .AHEAD. ) ;
#91 = EDGE_LOOP ( 'NONE', ( #322, #139, #5, #167 ) ) ;
#92 = AXIS2_PLACEMENT_3D ( 'NONE', #324, #98, #170 ) ;
#93 = APPROVAL_PERSON_ORGANIZATION ( #295, #306, #61 ) ;
#94 = DATE_TIME_ROLE ( 'classification_date' ) ;
#95 = EDGE_LOOP ( 'NONE', ( #119, #266, #313, #316 ) ) ;
#96 = DATE_AND_TIME ( #135, #181 ) ;
#97 = DIRECTION ( 'NONE',  ( -3.491481338843133355E-15, 1.224646799147353207E-16, -1.000000000000000000 ) ) ;
#98 = DIRECTION ( 'NONE',  ( -3.491481338843133355E-15, 1.224646799147353207E-16, -1.000000000000000000 ) ) ;
#99 = APPROVAL ( #261, 'UNSPECIFIED' ) ;
#100 = CC_DESIGN_APPROVAL ( #39, ( #134 ) ) ;
#101 = DIRECTION ( 'NONE',  ( 0.0000000000000000000, 1.000000000000000000, 0.0000000000000000000 ) ) ;
#102 = LINE ( 'NONE', #204, #150 ) ;
#103 = EDGE_CURVE ( 'NONE', #123, #36, #173, .T. ) ;
#104 = DIRECTION ( 'NONE',  ( 4.275831445896958607E-31, 1.000000000000000000, 1.224646799147353207E-16 ) ) ;
#105 = LOCAL_TIME ( 9, 22, 43.00000000000000000, #32 ) ;
#106 = FACE_OUTER_BOUND ( 'NONE', #264, .T. ) ;
#107 = LINE ( 'NONE', #273, #74 ) ;
#108 = LINE ( 'NONE', #260, #209 ) ;
#109 = FACE_OUTER_BOUND ( 'NONE', #272, .T. ) ;
#110 = EDGE_CURVE ( 'NONE', #40, #189, #216, .T. ) ;
#111 = CIRCLE ( 'NONE', #280, 4.049999999999990052 ) ;
#112 = CC_DESIGN_SECURITY_CLASSIFICATION ( #134, ( #34 ) ) ;
#113 = COORDINATED_UNIVERSAL_TIME_OFFSET ( 1, 0, .AHEAD. ) ;
#114 = ORIENTED_EDGE ( 'NONE', *, *, #77, .F. ) ;
#115 = DATE_AND_TIME ( #7, #299 ) ;
#116 = CARTESIAN_POINT ( 'NONE',  ( 8.496469236250938477E-15, -2.980160236994511589E-16, 2.433485507061640352 ) ) ;
#117 = ORIENTED_EDGE ( 'NONE', *, *, #20, .F. ) ;
#118 = CIRCLE ( 'NONE', #55, 3.250000000000000000 ) ;
#119 = ORIENTED_EDGE ( 'NONE', *, *, #203, .F. ) ;
#120 = CC_DESIGN_PERSON_AND_ORGANIZATION_ASSIGNMENT ( #157, #221, ( #84 ) ) ;
#121 = DIRECTION ( 'NONE',  ( -3.491481338843133355E-15, 1.224646799147353207E-16, -1.000000000000000000 ) ) ;
#122 = CARTESIAN_POINT ( 'NONE',  ( 9.426999614876460059E-14, -3.306546357697853733E-15, 27.00000000000000000 ) ) ;
#123 = VERTEX_POINT ( 'NONE', #17 ) ;
#124 = PLANE ( 'NONE',  #27 ) ;
#125 = CARTESIAN_POINT ( 'NONE',  ( 2.748774293147590234E-13, -3.250000000000009326, 79.00000000000000000 ) ) ;
#126 = DIRECTION ( 'NONE',  ( -3.491481338843133355E-15, 1.224646799147353207E-16, -1.000000000000000000 ) ) ;
#127 = CARTESIAN_POINT ( 'NONE',  ( 8.992451189905616143E-15, 4.049999999999990052, 2.433485507061640796 ) ) ;
#128 = CARTESIAN_POINT ( 'NONE',  ( 0.0000000000000000000, 0.0000000000000000000, 0.0000000000000000000 ) ) ;
#129 = EDGE_CURVE ( 'NONE', #189, #319, #107, .T. ) ;
#130 = CARTESIAN_POINT ( 'NONE',  ( 2.730338406975330915E-13, -9.576737969332302470E-15, 78.20000000000000284 ) ) ;
#131 = FACE_OUTER_BOUND ( 'NONE', #267, .T. ) ;
#132 = FACE_OUTER_BOUND ( 'NONE', #141, .T. ) ;
#133 = COORDINATED_UNIVERSAL_TIME_OFFSET ( 1, 0, .AHEAD. ) ;
#134 = SECURITY_CLASSIFICATION ( '', '', #244 ) ;
#135 = CALENDAR_DATE ( 2021, 3, 9 ) ;
#136 = CARTESIAN_POINT ( 'NONE',  ( 2.730338406975330915E-13, -9.576737969332302470E-15, 78.20000000000000284 ) ) ;
#137 = ADVANCED_FACE ( 'NONE', ( #171 ), #124, .F. ) ;
#138 = PERSON_AND_ORGANIZATION_ROLE ( 'creator' ) ;
#139 = ORIENTED_EDGE ( 'NONE', *, *, #203, .T. ) ;
#140 = VERTEX_POINT ( 'NONE', #127 ) ;
#141 = EDGE_LOOP ( 'NONE', ( #240, #114 ) ) ;
#142 = CIRCLE ( 'NONE', #268, 4.049999999999990052 ) ;
#143 = EDGE_CURVE ( 'NONE', #289, #140, #146, .T. ) ;
#144 = CYLINDRICAL_SURFACE ( 'NONE', #92, 4.049999999999996270 ) ;
#145 = FACE_OUTER_BOUND ( 'NONE', #292, .T. ) ;
#146 = LINE ( 'NONE', #226, #275 ) ;
#147 = CARTESIAN_POINT ( 'NONE',  ( 2.758270257686075477E-13, -9.674709713264090904E-15, 79.00000000000000000 ) ) ;
#148 = LINE ( 'NONE', #327, #208 ) ;
#149 = LINE ( 'NONE', #305, #160 ) ;
#150 = VECTOR ( 'NONE', #326, 1000.000000000000114 ) ;
#151 = ADVANCED_FACE ( 'NONE', ( #145 ), #262, .T. ) ;
#152 = CARTESIAN_POINT ( 'NONE',  ( 9.426999614876460059E-14, 3.037013559890252077E-32, 27.00000000000000000 ) ) ;
#153 = DIRECTION ( 'NONE',  ( 3.491481338843133355E-15, -1.224646799147353207E-16, 1.000000000000000000 ) ) ;
#154 = CC_DESIGN_DATE_AND_TIME_ASSIGNMENT ( #166, #94, ( #134 ) ) ;
#155 = VECTOR ( 'NONE', #274, 1000.000000000000000 ) ;
#156 = AXIS2_PLACEMENT_3D ( 'NONE', #130, #310, #30 ) ;
#157 = PERSON_AND_ORGANIZATION ( #67, #183 ) ;
#158 = CARTESIAN_POINT ( 'NONE',  ( 9.426999614876460059E-14, 4.049999999999990052, 27.00000000000000000 ) ) ;
#159 = APPROVAL_DATE_TIME ( #96, #306 ) ;
#160 = VECTOR ( 'NONE', #79, 999.9999999999998863 ) ;
#161 = ORIENTED_EDGE ( 'NONE', *, *, #236, .F. ) ;
#162 = ORIENTED_EDGE ( 'NONE', *, *, #225, .F. ) ;
#163 = APPROVAL_ROLE ( '' ) ;
#164 = ORIENTED_EDGE ( 'NONE', *, *, #236, .T. ) ;
#165 = EDGE_CURVE ( 'NONE', #8, #294, #311, .T. ) ;
#166 = DATE_AND_TIME ( #64, #270 ) ;
#167 = ORIENTED_EDGE ( 'NONE', *, *, #50, .F. ) ;
#168 = AXIS2_PLACEMENT_3D ( 'NONE', #122, #44, #230 ) ;
#169 = AXIS2_PLACEMENT_3D ( 'NONE', #231, #307, #31 ) ;
#170 = DIRECTION ( 'NONE',  ( 4.275831445896958607E-31, 1.000000000000000000, 1.224646799147353207E-16 ) ) ;
#171 = FACE_OUTER_BOUND ( 'NONE', #45, .T. ) ;
#172 = CC_DESIGN_PERSON_AND_ORGANIZATION_ASSIGNMENT ( #214, #318, ( #12 ) ) ;
#173 = LINE ( 'NONE', #48, #180 ) ;
#174 = DESIGN_CONTEXT ( 'detailed design', #276, 'design' ) ;
#175 = CIRCLE ( 'NONE', #325, 4.049999999999999822 ) ;
#176 = DIRECTION ( 'NONE',  ( -3.491481338843133355E-15, 1.224646799147353207E-16, -1.000000000000000000 ) ) ;
#177 = DIRECTION ( 'NONE',  ( -3.491481338843133355E-15, 1.224646799147353207E-16, -1.000000000000000000 ) ) ;
#178 = EDGE_CURVE ( 'NONE', #294, #8, #224, .T. ) ;
#179 = CARTESIAN_POINT ( 'NONE',  ( 0.0000000000000000000, 0.0000000000000000000, 0.0000000000000000000 ) ) ;
#180 = VECTOR ( 'NONE', #72, 1000.000000000000000 ) ;
#181 = LOCAL_TIME ( 9, 22, 43.00000000000000000, #187 ) ;
#182 = FACE_OUTER_BOUND ( 'NONE', #71, .T. ) ;
#183 = ORGANIZATION ( 'UNSPECIFIED', 'UNSPECIFIED', '' ) ;
#184 = CYLINDRICAL_SURFACE ( 'NONE', #290, 4.049999999999991829 ) ;
#185 = DIRECTION ( 'NONE',  ( 0.0000000000000000000, 0.0000000000000000000, 1.000000000000000000 ) ) ;
#186 = CC_DESIGN_PERSON_AND_ORGANIZATION_ASSIGNMENT ( #323, #66, ( #134 ) ) ;
#187 = COORDINATED_UNIVERSAL_TIME_OFFSET ( 1, 0, .AHEAD. ) ;
#188 = ORIENTED_EDGE ( 'NONE', *, *, #129, .F. ) ;
#189 = VERTEX_POINT ( 'NONE', #125 ) ;
#190 = APPROVAL_STATUS ( 'not_yet_approved' ) ;
#191 = EDGE_CURVE ( 'NONE', #40, #218, #102, .T. ) ;
#192 = ORIENTED_EDGE ( 'NONE', *, *, #228, .T. ) ;
#193 = PERSON_AND_ORGANIZATION_ROLE ( 'design_supplier' ) ;
#194 = DIRECTION ( 'NONE',  ( 3.804306062987141999E-31, 1.000000000000000000, 1.070816960479513212E-16 ) ) ;
#195 = ORIENTED_EDGE ( 'NONE', *, *, #110, .T. ) ;
#196 = DIRECTION ( 'NONE',  ( -3.491481338843133355E-15, 1.224646799147353207E-16, -1.000000000000000000 ) ) ;
#197 = CC_DESIGN_PERSON_AND_ORGANIZATION_ASSIGNMENT ( #315, #193, ( #34 ) ) ;
#198 = CARTESIAN_POINT ( 'NONE',  ( 0.0000000000000000000, 0.0000000000000000000, 0.0000000000000000000 ) ) ;
#199 = CARTESIAN_POINT ( 'NONE',  ( 8.496469236250938477E-15, -2.980160236994511589E-16, 2.433485507061640352 ) ) ;
#200 = AXIS2_PLACEMENT_3D ( 'NONE', #232, #206, #82 ) ;
#201 = CC_DESIGN_APPROVAL ( #99, ( #12 ) ) ;
#202 = DIRECTION ( 'NONE',  ( -3.491481338843133355E-15, 1.224646799147353207E-16, -1.000000000000000000 ) ) ;
#203 = EDGE_CURVE ( 'NONE', #319, #8, #148, .T. ) ;
#204 = CARTESIAN_POINT ( 'NONE',  ( 2.758270257686075477E-13, 3.249999999999990230, 79.00000000000000000 ) ) ;
#205 = DIRECTION ( 'NONE',  ( -4.275831445896958607E-31, -1.000000000000000000, -1.224646799147353207E-16 ) ) ;
#206 = DIRECTION ( 'NONE',  ( 3.491481338843133355E-15, -1.224646799147353207E-16, 1.000000000000000000 ) ) ;
#207 =( NAMED_UNIT ( * ) PLANE_ANGLE_UNIT ( ) SI_UNIT ( $, .RADIAN. ) );
#208 = VECTOR ( 'NONE', #248, 1000.000000000000000 ) ;
#209 = VECTOR ( 'NONE', #210, 1000.000000000000000 ) ;
#210 = DIRECTION ( 'NONE',  ( 1.798245827342160317E-15, -0.8571673007021098911, 0.5150380749100582634 ) ) ;
#211 = ADVANCED_FACE ( 'NONE', ( #106 ), #301, .T. ) ;
#212 = SHAPE_DEFINITION_REPRESENTATION ( #242, #287 ) ;
#213 = EDGE_LOOP ( 'NONE', ( #161, #89, #13 ) ) ;
#214 = PERSON_AND_ORGANIZATION ( #67, #183 ) ;
#215 = ORIENTED_EDGE ( 'NONE', *, *, #321, .T. ) ;
#216 = CIRCLE ( 'NONE', #10, 3.250000000000000000 ) ;
#217 = APPROVAL_PERSON_ORGANIZATION ( #37, #99, #293 ) ;
#218 = VERTEX_POINT ( 'NONE', #22 ) ;
#219 = CALENDAR_DATE ( 2021, 3, 9 ) ;
#220 = ORIENTED_EDGE ( 'NONE', *, *, #77, .T. ) ;
#221 = PERSON_AND_ORGANIZATION_ROLE ( 'design_owner' ) ;
#222 = ORIENTED_EDGE ( 'NONE', *, *, #191, .T. ) ;
#223 = DIRECTION ( 'NONE',  ( 3.491481338843133355E-15, -1.224646799147353207E-16, 1.000000000000000000 ) ) ;
#224 = CIRCLE ( 'NONE', #21, 4.049999999999993605 ) ;
#225 = EDGE_CURVE ( 'NONE', #140, #36, #111, .T. ) ;
#226 = CARTESIAN_POINT ( 'NONE',  ( 1.731711735588264654E-30, 4.049999999999991829, 4.959819536546770739E-16 ) ) ;
#227 = DIRECTION ( 'NONE',  ( -3.491481338843133355E-15, 1.224646799147353207E-16, -1.000000000000000000 ) ) ;
#228 = EDGE_CURVE ( 'NONE', #289, #123, #80, .T. ) ;
#229 = CARTESIAN_POINT ( 'NONE',  ( 9.426999614876460059E-14, -3.306546357697853733E-15, 27.00000000000000000 ) ) ;
#230 = DIRECTION ( 'NONE',  ( 0.0000000000000000000, 1.000000000000000000, 0.0000000000000000000 ) ) ;
#231 = CARTESIAN_POINT ( 'NONE',  ( 2.758270257686075477E-13, -9.674709713264090904E-15, 79.00000000000000000 ) ) ;
#232 = CARTESIAN_POINT ( 'NONE',  ( 8.496469236250938477E-15, -2.980160236994511589E-16, 2.433485507061640352 ) ) ;
#233 = ADVANCED_FACE ( 'NONE', ( #304 ), #308, .T. ) ;
#234 = AXIS2_PLACEMENT_3D ( 'NONE', #18, #223, #249 ) ;
#235 = DIRECTION ( 'NONE',  ( 0.0000000000000000000, 1.000000000000000000, 0.0000000000000000000 ) ) ;
#236 = EDGE_CURVE ( 'NONE', #238, #140, #149, .T. ) ;
#237 = APPROVAL_DATE_TIME ( #115, #99 ) ;
#238 = VERTEX_POINT ( 'NONE', #179 ) ;
#239 = APPLICATION_PROTOCOL_DEFINITION ( 'international standard', 'config_control_design', 1994, #276 ) ;
#240 = ORIENTED_EDGE ( 'NONE', *, *, #228, .F. ) ;
#241 = ORIENTED_EDGE ( 'NONE', *, *, #309, .F. ) ;
#242 = PRODUCT_DEFINITION_SHAPE ( 'NONE', 'NONE',  #12 ) ;
#243 = AXIS2_PLACEMENT_3D ( 'NONE', #198, #227, #104 ) ;
#244 = SECURITY_CLASSIFICATION_LEVEL ( 'unclassified' ) ;
#245 = ORIENTED_EDGE ( 'NONE', *, *, #321, .F. ) ;
#246 = ORIENTED_EDGE ( 'NONE', *, *, #191, .F. ) ;
#247 = CC_DESIGN_PERSON_AND_ORGANIZATION_ASSIGNMENT ( #263, #138, ( #34 ) ) ;
#248 = DIRECTION ( 'NONE',  ( -3.491481338843133355E-15, 1.224646799147353207E-16, -1.000000000000000000 ) ) ;
#249 = DIRECTION ( 'NONE',  ( -3.804306062987141999E-31, -1.000000000000000000, -1.070816960479513212E-16 ) ) ;
#250 = LINE ( 'NONE', #277, #155 ) ;
#251 = ADVANCED_FACE ( 'NONE', ( #279 ), #52, .T. ) ;
#252 = DIRECTION ( 'NONE',  ( 3.804306062987141999E-31, 1.000000000000000000, 1.070816960479513212E-16 ) ) ;
#253 = DIRECTION ( 'NONE',  ( 0.0000000000000000000, 1.000000000000000000, 0.0000000000000000000 ) ) ;
#254 = LOCAL_TIME ( 9, 22, 43.00000000000000000, #90 ) ;
#255 = DIRECTION ( 'NONE',  ( 3.491481338843133355E-15, -1.224646799147353207E-16, 1.000000000000000000 ) ) ;
#256 = FACE_OUTER_BOUND ( 'NONE', #213, .T. ) ;
#257 = ADVANCED_FACE ( 'NONE', ( #109 ), #312, .F. ) ;
#258 = DIRECTION ( 'NONE',  ( 1.000000000000000000, 0.0000000000000000000, 0.0000000000000000000 ) ) ;
#259 = ADVANCED_FACE ( 'NONE', ( #182 ), #184, .T. ) ;
#260 = CARTESIAN_POINT ( 'NONE',  ( 8.496469236250936900E-15, -4.049999999999990052, 2.433485507061639908 ) ) ;
#261 = APPROVAL_STATUS ( 'not_yet_approved' ) ;
#262 = CONICAL_SURFACE ( 'NONE', #234, 4.049999999999990052, 1.029744258676649649 ) ;
#263 = PERSON_AND_ORGANIZATION ( #67, #183 ) ;
#264 = EDGE_LOOP ( 'NONE', ( #70, #220, #68, #9 ) ) ;
#265 = ORIENTED_EDGE ( 'NONE', *, *, #314, .F. ) ;
#266 = ORIENTED_EDGE ( 'NONE', *, *, #20, .T. ) ;
#267 = EDGE_LOOP ( 'NONE', ( #195, #38, #265, #246 ) ) ;
#268 = AXIS2_PLACEMENT_3D ( 'NONE', #116, #97, #194 ) ;
#269 = PERSON_AND_ORGANIZATION ( #67, #183 ) ;
#270 = LOCAL_TIME ( 9, 22, 43.00000000000000000, #113 ) ;
#271 = DIRECTION ( 'NONE',  ( 0.0000000000000000000, 1.000000000000000000, 0.0000000000000000000 ) ) ;
#272 = EDGE_LOOP ( 'NONE', ( #59, #62 ) ) ;
#273 = CARTESIAN_POINT ( 'NONE',  ( 2.762250359783304180E-13, -3.250000000000009326, 79.00000000000000000 ) ) ;
#274 = DIRECTION ( 'NONE',  ( -3.491481338843133355E-15, 1.224646799147353207E-16, -1.000000000000000000 ) ) ;
#275 = VECTOR ( 'NONE', #126, 1000.000000000000000 ) ;
#276 = APPLICATION_CONTEXT ( 'configuration controlled 3d designs of mechanical parts and assemblies' ) ;
#277 = CARTESIAN_POINT ( 'NONE',  ( 1.731711735588266756E-30, 4.049999999999996270, 4.959819536546775670E-16 ) ) ;
#278 = CARTESIAN_POINT ( 'NONE',  ( 9.426999614876460059E-14, -3.306546357697853733E-15, 27.00000000000000000 ) ) ;
#279 = FACE_OUTER_BOUND ( 'NONE', #91, .T. ) ;
#280 = AXIS2_PLACEMENT_3D ( 'NONE', #199, #76, #252 ) ;
#281 = PRODUCT_RELATED_PRODUCT_CATEGORY ( 'detail', '', ( #84 ) ) ;
#282 = PLANE ( 'NONE',  #47 ) ;
#283 = APPLICATION_PROTOCOL_DEFINITION ( 'international standard', 'config_control_design', 1994, #337 ) ;
#284 = AXIS2_PLACEMENT_3D ( 'NONE', #24, #1, #56 ) ;
#285 =( GEOMETRIC_REPRESENTATION_CONTEXT ( 3 ) GLOBAL_UNCERTAINTY_ASSIGNED_CONTEXT ( ( #333 ) ) GLOBAL_UNIT_ASSIGNED_CONTEXT ( ( #335, #207, #53 ) ) REPRESENTATION_CONTEXT ( 'NONE', 'WORKASPACE' ) );
#286 = DIRECTION ( 'NONE',  ( -3.491481338843133355E-15, 1.224646799147353207E-16, -1.000000000000000000 ) ) ;
#287 = ADVANCED_BREP_SHAPE_REPRESENTATION ( '53058', ( #58, #63, #69 ), #285 ) ;
#288 = DATE_AND_TIME ( #41, #254 ) ;
#289 = VERTEX_POINT ( 'NONE', #332 ) ;
#290 = AXIS2_PLACEMENT_3D ( 'NONE', #128, #336, #334 ) ;
#291 = ADVANCED_FACE ( 'NONE', ( #256 ), #46, .T. ) ;
#292 = EDGE_LOOP ( 'NONE', ( #241, #164, #42 ) ) ;
#293 = APPROVAL_ROLE ( '' ) ;
#294 = VERTEX_POINT ( 'NONE', #158 ) ;
#295 = PERSON_AND_ORGANIZATION ( #67, #183 ) ;
#296 = CARTESIAN_POINT ( 'NONE',  ( 1.841479003768035158E-13, -4.049999999999997158, 27.00000000000000000 ) ) ;
#297 = ADVANCED_FACE ( 'NONE', ( #131 ), #23, .T. ) ;
#298 = CLOSED_SHELL ( 'NONE', ( #297, #251, #257, #33, #233, #137 ) ) ;
#299 = LOCAL_TIME ( 9, 22, 43.00000000000000000, #133 ) ;
#300 = FACE_OUTER_BOUND ( 'NONE', #95, .T. ) ;
#301 = CYLINDRICAL_SURFACE ( 'NONE', #243, 4.049999999999991829 ) ;
#302 = DIRECTION ( 'NONE',  ( -3.491481338843133355E-15, 1.224646799147353207E-16, -1.000000000000000000 ) ) ;
#303 = CARTESIAN_POINT ( 'NONE',  ( 9.426999614876460059E-14, -3.306546357697853733E-15, 27.00000000000000000 ) ) ;
#304 = FACE_OUTER_BOUND ( 'NONE', #11, .T. ) ;
#305 = CARTESIAN_POINT ( 'NONE',  ( 8.992451189905616143E-15, 4.049999999999990052, 2.433485507061640796 ) ) ;
#306 = APPROVAL ( #4, 'UNSPECIFIED' ) ;
#307 = DIRECTION ( 'NONE',  ( -3.491481338843133355E-15, 1.224646799147353207E-16, -1.000000000000000000 ) ) ;
#308 = CONICAL_SURFACE ( 'NONE', #3, 3.250000000000000000, 0.7853981633974512766 ) ;
#309 = EDGE_CURVE ( 'NONE', #238, #36, #108, .T. ) ;
#310 = DIRECTION ( 'NONE',  ( -3.491481338843133355E-15, 1.224646799147353207E-16, -1.000000000000000000 ) ) ;
#311 = CIRCLE ( 'NONE', #168, 4.049999999999993605 ) ;
#312 = PLANE ( 'NONE',  #60 ) ;
#313 = ORIENTED_EDGE ( 'NONE', *, *, #50, .T. ) ;
#314 = EDGE_CURVE ( 'NONE', #218, #319, #29, .T. ) ;
#315 = PERSON_AND_ORGANIZATION ( #67, #183 ) ;
#316 = ORIENTED_EDGE ( 'NONE', *, *, #165, .F. ) ;
#317 = AXIS2_PLACEMENT_3D ( 'NONE', #229, #202, #253 ) ;
#318 = PERSON_AND_ORGANIZATION_ROLE ( 'creator' ) ;
#319 = VERTEX_POINT ( 'NONE', #81 ) ;
#320 = DATE_TIME_ROLE ( 'creation_date' ) ;
#321 = EDGE_CURVE ( 'NONE', #189, #40, #118, .T. ) ;
#322 = ORIENTED_EDGE ( 'NONE', *, *, #314, .T. ) ;
#323 = PERSON_AND_ORGANIZATION ( #67, #183 ) ;
#324 = CARTESIAN_POINT ( 'NONE',  ( 0.0000000000000000000, 0.0000000000000000000, 0.0000000000000000000 ) ) ;
#325 = AXIS2_PLACEMENT_3D ( 'NONE', #136, #121, #271 ) ;
#326 = DIRECTION ( 'NONE',  ( -2.468850131082257455E-15, 0.7071067811865497932, -0.7071067811865453523 ) ) ;
#327 = CARTESIAN_POINT ( 'NONE',  ( 4.959819536546758906E-16, -4.049999999999996270, -4.959819536546793419E-16 ) ) ;
#328 = DIRECTION ( 'NONE',  ( 4.275831445896958607E-31, 1.000000000000000000, 1.224646799147353207E-16 ) ) ;
#329 = DIRECTION ( 'NONE',  ( 0.0000000000000000000, 1.000000000000000000, 0.0000000000000000000 ) ) ;
#330 = CARTESIAN_POINT ( 'NONE',  ( 2.758270257686075477E-13, 3.249999999999990230, 79.00000000000000000 ) ) ;
#331 = ADVANCED_FACE ( 'NONE', ( #132 ), #282, .T. ) ;
#332 = CARTESIAN_POINT ( 'NONE',  ( 9.426999614876460059E-14, 4.049999999999990052, 27.00000000000000000 ) ) ;
#333 = UNCERTAINTY_MEASURE_WITH_UNIT (LENGTH_MEASURE( 1.000000000000000082E-05 ), #335, 'distance_accuracy_value', 'NONE');
#334 = DIRECTION ( 'NONE',  ( 4.275831445896958607E-31, 1.000000000000000000, 1.224646799147353207E-16 ) ) ;
#335 =( LENGTH_UNIT ( ) NAMED_UNIT ( * ) SI_UNIT ( .MILLI., .METRE. ) );
#336 = DIRECTION ( 'NONE',  ( -3.491481338843133355E-15, 1.224646799147353207E-16, -1.000000000000000000 ) ) ;
#337 = APPLICATION_CONTEXT ( 'configuration controlled 3d designs of mechanical parts and assemblies' ) ;
ENDSEC;
END-ISO-10303-21;
