ISO-10303-21;
HEADER;
FILE_DESCRIPTION (( 'STEP AP203' ),
    '1' );
FILE_NAME ('53057.step',
    '2021-09-03T07:22:42',
    ( '' ),
    ( '' ),
    'SwSTEP 2.0',
    'SolidWorks 2019',
    '' );
FILE_SCHEMA (( 'CONFIG_CONTROL_DESIGN' ));
ENDSEC;

DATA;
#1 = ORIENTED_EDGE ( 'NONE', *, *, #208, .T. ) ;
#2 = APPROVAL ( #42, 'UNSPECIFIED' ) ;
#3 = ORGANIZATION ( 'UNSPECIFIED', 'UNSPECIFIED', '' ) ;
#4 = DIRECTION ( 'NONE',  ( 3.900617608885549931E-31, 1.000000000000000000, 1.097926250618234861E-16 ) ) ;
#5 = CARTESIAN_POINT ( 'NONE',  ( 0.0000000000000000000, 0.0000000000000000000, 0.0000000000000000000 ) ) ;
#6 = ORIENTED_EDGE ( 'NONE', *, *, #28, .F. ) ;
#7 = APPLICATION_CONTEXT ( 'configuration controlled 3d designs of mechanical parts and assemblies' ) ;
#8 = CC_DESIGN_SECURITY_CLASSIFICATION ( #132, ( #290 ) ) ;
#9 = ORIENTED_EDGE ( 'NONE', *, *, #199, .T. ) ;
#10 = DIRECTION ( 'NONE',  ( -3.491481338843133355E-15, 1.224646799147353207E-16, -1.000000000000000000 ) ) ;
#11 = DIRECTION ( 'NONE',  ( -3.491481338843133355E-15, 1.224646799147353207E-16, -1.000000000000000000 ) ) ;
#12 = CC_DESIGN_PERSON_AND_ORGANIZATION_ASSIGNMENT ( #74, #181, ( #290 ) ) ;
#13 = AXIS2_PLACEMENT_3D ( 'NONE', #288, #162, #262 ) ;
#14 = ORIENTED_EDGE ( 'NONE', *, *, #119, .F. ) ;
#15 = CARTESIAN_POINT ( 'NONE',  ( 1.688953421129295575E-30, 3.949999999999992628, 4.837354856632035197E-16 ) ) ;
#16 = VERTEX_POINT ( 'NONE', #48 ) ;
#17 = VECTOR ( 'NONE', #230, 1000.000000000000114 ) ;
#18 = PERSON_AND_ORGANIZATION ( #275, #3 ) ;
#19 = CC_DESIGN_APPROVAL ( #166, ( #132 ) ) ;
#20 = ORIENTED_EDGE ( 'NONE', *, *, #114, .T. ) ;
#21 = ORIENTED_EDGE ( 'NONE', *, *, #291, .F. ) ;
#22 = ADVANCED_FACE ( 'NONE', ( #232 ), #25, .T. ) ;
#23 = VERTEX_POINT ( 'NONE', #205 ) ;
#24 = CLOSED_SHELL ( 'NONE', ( #22, #176, #125, #267, #165 ) ) ;
#25 = CYLINDRICAL_SURFACE ( 'NONE', #200, 3.949999999999992628 ) ;
#26 = UNCERTAINTY_MEASURE_WITH_UNIT (LENGTH_MEASURE( 1.000000000000000082E-05 ), #172, 'distance_accuracy_value', 'NONE');
#27 = CARTESIAN_POINT ( 'NONE',  ( 9.426999614876460059E-14, 3.949999999999990852, 27.00000000000000000 ) ) ;
#28 = EDGE_CURVE ( 'NONE', #60, #256, #280, .T. ) ;
#29 = DIRECTION ( 'NONE',  ( 0.0000000000000000000, 1.000000000000000000, 0.0000000000000000000 ) ) ;
#30 = AXIS2_PLACEMENT_3D ( 'NONE', #337, #312, #214 ) ;
#31 = CARTESIAN_POINT ( 'NONE',  ( 2.748651828467675776E-13, -3.150000000000010125, 79.00000000000000000 ) ) ;
#32 = AXIS2_PLACEMENT_3D ( 'NONE', #241, #10, #169 ) ;
#33 = CARTESIAN_POINT ( 'NONE',  ( 0.0000000000000000000, 0.0000000000000000000, 0.0000000000000000000 ) ) ;
#34 = APPROVAL ( #326, 'UNSPECIFIED' ) ;
#35 = DIRECTION ( 'NONE',  ( 4.275831445896958607E-31, 1.000000000000000000, 1.224646799147352961E-16 ) ) ;
#36 = LINE ( 'NONE', #40, #249 ) ;
#37 = EDGE_LOOP ( 'NONE', ( #129, #151, #1 ) ) ;
#38 = CIRCLE ( 'NONE', #59, 3.949999999999994404 ) ;
#39 = CARTESIAN_POINT ( 'NONE',  ( 0.0000000000000000000, 0.0000000000000000000, 0.0000000000000000000 ) ) ;
#40 = CARTESIAN_POINT ( 'NONE',  ( 1.688953421129297327E-30, 3.949999999999997069, 4.837354856632041113E-16 ) ) ;
#41 = CARTESIAN_POINT ( 'NONE',  ( 2.758270257686075477E-13, 3.149999999999991029, 79.00000000000000000 ) ) ;
#42 = APPROVAL_STATUS ( 'not_yet_approved' ) ;
#43 = CARTESIAN_POINT ( 'NONE',  ( 9.426999614876460059E-14, -3.306546357697853733E-15, 27.00000000000000000 ) ) ;
#44 = CC_DESIGN_APPROVAL ( #2, ( #148 ) ) ;
#45 = CARTESIAN_POINT ( 'NONE',  ( 2.762127895103389218E-13, -3.150000000000010125, 79.00000000000000000 ) ) ;
#46 = COORDINATED_UNIVERSAL_TIME_OFFSET ( 1, 0, .AHEAD. ) ;
#47 = EDGE_CURVE ( 'NONE', #256, #60, #293, .T. ) ;
#48 = CARTESIAN_POINT ( 'NONE',  ( 0.0000000000000000000, 0.0000000000000000000, 0.0000000000000000000 ) ) ;
#49 = ORIENTED_EDGE ( 'NONE', *, *, #111, .F. ) ;
#50 = LINE ( 'NONE', #99, #325 ) ;
#51 = CIRCLE ( 'NONE', #13, 3.949999999999990852 ) ;
#52 = DIRECTION ( 'NONE',  ( -3.900617608885549931E-31, -1.000000000000000000, -1.097926250618234861E-16 ) ) ;
#53 = DATE_AND_TIME ( #231, #102 ) ;
#54 = MANIFOLD_SOLID_BREP ( 'Corps-Déplacer/Copier1[1]', #117 ) ;
#55 = DIRECTION ( 'NONE',  ( 1.903218546456023111E-15, 0.8571673007021096691, 0.5150380749100587074 ) ) ;
#56 = CARTESIAN_POINT ( 'NONE',  ( 2.730338406975330915E-13, 3.949999999999990852, 78.20000000000000284 ) ) ;
#57 = CIRCLE ( 'NONE', #215, 3.949999999999994404 ) ;
#58 = DIRECTION ( 'NONE',  ( -4.275831445896958607E-31, -1.000000000000000000, -1.224646799147353207E-16 ) ) ;
#59 = AXIS2_PLACEMENT_3D ( 'NONE', #204, #302, #93 ) ;
#60 = VERTEX_POINT ( 'NONE', #121 ) ;
#61 = DIRECTION ( 'NONE',  ( 4.275831445896958607E-31, 1.000000000000000000, 1.224646799147353207E-16 ) ) ;
#62 = APPLICATION_PROTOCOL_DEFINITION ( 'international standard', 'config_control_design', 1994, #192 ) ;
#63 = AXIS2_PLACEMENT_3D ( 'NONE', #5, #115, #61 ) ;
#64 = PLANE ( 'NONE',  #79 ) ;
#65 = LINE ( 'NONE', #45, #84 ) ;
#66 = CARTESIAN_POINT ( 'NONE',  ( 5.176207349624191157E-14, -3.949999999999997957, 27.00000000000000000 ) ) ;
#67 = ORIENTED_EDGE ( 'NONE', *, *, #114, .F. ) ;
#68 = PLANE ( 'NONE',  #108 ) ;
#69 = ORIENTED_EDGE ( 'NONE', *, *, #47, .T. ) ;
#70 = EDGE_CURVE ( 'NONE', #23, #228, #332, .T. ) ;
#71 = VECTOR ( 'NONE', #286, 1000.000000000000000 ) ;
#72 = COORDINATED_UNIVERSAL_TIME_OFFSET ( 1, 0, .AHEAD. ) ;
#73 = EDGE_LOOP ( 'NONE', ( #69, #153, #255, #266 ) ) ;
#74 = PERSON_AND_ORGANIZATION ( #275, #3 ) ;
#75 = DIRECTION ( 'NONE',  ( 0.0000000000000000000, 1.000000000000000000, 0.0000000000000000000 ) ) ;
#76 = CARTESIAN_POINT ( 'NONE',  ( 8.286679872392892815E-15, -2.906576033611932000E-16, 2.373399445158884458 ) ) ;
#77 = EDGE_LOOP ( 'NONE', ( #155, #184 ) ) ;
#78 = PRODUCT ( '53057', '53057', '', ( #89 ) ) ;
#79 = AXIS2_PLACEMENT_3D ( 'NONE', #277, #300, #298 ) ;
#80 = LINE ( 'NONE', #187, #304 ) ;
#81 = CARTESIAN_POINT ( 'NONE',  ( 8.286679872392891237E-15, -3.949999999999990852, 2.373399445158884014 ) ) ;
#82 = ORIENTED_EDGE ( 'NONE', *, *, #138, .F. ) ;
#83 = CC_DESIGN_PERSON_AND_ORGANIZATION_ASSIGNMENT ( #237, #336, ( #132 ) ) ;
#84 = VECTOR ( 'NONE', #100, 1000.000000000000114 ) ;
#85 = FACE_OUTER_BOUND ( 'NONE', #201, .T. ) ;
#86 = EDGE_CURVE ( 'NONE', #328, #126, #160, .T. ) ;
#87 = DIRECTION ( 'NONE',  ( 0.0000000000000000000, 1.000000000000000000, 0.0000000000000000000 ) ) ;
#88 = LOCAL_TIME ( 9, 22, 42.00000000000000000, #175 ) ;
#89 = MECHANICAL_CONTEXT ( 'NONE', #7, 'mechanical' ) ;
#90 = DATE_AND_TIME ( #152, #196 ) ;
#91 = ORIENTED_EDGE ( 'NONE', *, *, #47, .F. ) ;
#92 = AXIS2_PLACEMENT_3D ( 'NONE', #43, #182, #301 ) ;
#93 = DIRECTION ( 'NONE',  ( 0.0000000000000000000, 1.000000000000000000, 0.0000000000000000000 ) ) ;
#94 = ORIENTED_EDGE ( 'NONE', *, *, #70, .F. ) ;
#95 = DESIGN_CONTEXT ( 'detailed design', #192, 'design' ) ;
#96 = DATE_TIME_ROLE ( 'creation_date' ) ;
#97 = ADVANCED_BREP_SHAPE_REPRESENTATION ( '53057', ( #54, #278, #122 ), #240 ) ;
#98 = EDGE_CURVE ( 'NONE', #328, #253, #50, .T. ) ;
#99 = CARTESIAN_POINT ( 'NONE',  ( 4.837354856632019419E-16, -3.949999999999992628, -4.837354856632052946E-16 ) ) ;
#100 = DIRECTION ( 'NONE',  ( -2.382254525458708792E-15, -0.7071067811865495711, -0.7071067811865455743 ) ) ;
#101 = APPROVAL_PERSON_ORGANIZATION ( #247, #2, #118 ) ;
#102 = LOCAL_TIME ( 9, 22, 42.00000000000000000, #334 ) ;
#103 = DIRECTION ( 'NONE',  ( -3.491481338843133355E-15, 1.224646799147353207E-16, -1.000000000000000000 ) ) ;
#104 = CARTESIAN_POINT ( 'NONE',  ( 2.758270257686075477E-13, -9.674709713264090904E-15, 79.00000000000000000 ) ) ;
#105 = DATE_AND_TIME ( #235, #123 ) ;
#106 = PRODUCT_RELATED_PRODUCT_CATEGORY ( 'detail', '', ( #78 ) ) ;
#107 = CARTESIAN_POINT ( 'NONE',  ( 2.758270257686075477E-13, 3.149999999999991029, 79.00000000000000000 ) ) ;
#108 = AXIS2_PLACEMENT_3D ( 'NONE', #179, #116, #146 ) ;
#109 = CARTESIAN_POINT ( 'NONE',  ( 9.426999614876460059E-14, 3.949999999999990852, 27.00000000000000000 ) ) ;
#110 = FACE_OUTER_BOUND ( 'NONE', #171, .T. ) ;
#111 = EDGE_CURVE ( 'NONE', #157, #60, #65, .T. ) ;
#112 = PRODUCT_DEFINITION_SHAPE ( 'NONE', 'NONE',  #148 ) ;
#113 = ORIENTED_EDGE ( 'NONE', *, *, #98, .T. ) ;
#114 = EDGE_CURVE ( 'NONE', #177, #256, #276, .T. ) ;
#115 = DIRECTION ( 'NONE',  ( -3.491481338843133355E-15, 1.224646799147353207E-16, -1.000000000000000000 ) ) ;
#116 = DIRECTION ( 'NONE',  ( 3.491481338843133355E-15, -1.224646799147353207E-16, 1.000000000000000000 ) ) ;
#117 = CLOSED_SHELL ( 'NONE', ( #188, #141, #321, #265, #245, #296 ) ) ;
#118 = APPROVAL_ROLE ( '' ) ;
#119 = EDGE_CURVE ( 'NONE', #60, #23, #331, .T. ) ;
#120 = CALENDAR_DATE ( 2021, 3, 9 ) ;
#121 = CARTESIAN_POINT ( 'NONE',  ( 1.841356539088118681E-13, -3.950000000000009948, 78.20000000000000284 ) ) ;
#122 = AXIS2_PLACEMENT_3D ( 'NONE', #39, #252, #329 ) ;
#123 = LOCAL_TIME ( 9, 22, 42.00000000000000000, #46 ) ;
#124 = PERSON_AND_ORGANIZATION ( #275, #3 ) ;
#125 = ADVANCED_FACE ( 'NONE', ( #292 ), #174, .T. ) ;
#126 = VERTEX_POINT ( 'NONE', #27 ) ;
#127 = SHAPE_DEFINITION_REPRESENTATION ( #112, #97 ) ;
#128 = EDGE_LOOP ( 'NONE', ( #14, #178, #158, #94 ) ) ;
#129 = ORIENTED_EDGE ( 'NONE', *, *, #243, .F. ) ;
#130 = AXIS2_PLACEMENT_3D ( 'NONE', #224, #273, #272 ) ;
#131 = CALENDAR_DATE ( 2021, 3, 9 ) ;
#132 = SECURITY_CLASSIFICATION ( '', '', #183 ) ;
#133 = CARTESIAN_POINT ( 'NONE',  ( 2.730338406975330915E-13, -9.576737969332302470E-15, 78.20000000000000284 ) ) ;
#134 = DATE_AND_TIME ( #131, #268 ) ;
#135 = FACE_OUTER_BOUND ( 'NONE', #37, .T. ) ;
#136 = CARTESIAN_POINT ( 'NONE',  ( 4.837354856632025336E-16, -3.949999999999997069, -4.837354856632057876E-16 ) ) ;
#137 = AXIS2_PLACEMENT_3D ( 'NONE', #221, #319, #35 ) ;
#138 = EDGE_CURVE ( 'NONE', #157, #177, #274, .T. ) ;
#139 = FACE_OUTER_BOUND ( 'NONE', #73, .T. ) ;
#140 = ORIENTED_EDGE ( 'NONE', *, *, #98, .F. ) ;
#141 = ADVANCED_FACE ( 'NONE', ( #139 ), #318, .T. ) ;
#142 = AXIS2_PLACEMENT_3D ( 'NONE', #281, #279, #283 ) ;
#143 = CC_DESIGN_APPROVAL ( #34, ( #290 ) ) ;
#144 = ORIENTED_EDGE ( 'NONE', *, *, #199, .F. ) ;
#145 = DIRECTION ( 'NONE',  ( 4.275831445896958607E-31, 1.000000000000000000, 1.224646799147353207E-16 ) ) ;
#146 = DIRECTION ( 'NONE',  ( -4.275831445896958607E-31, -1.000000000000000000, -1.224646799147353207E-16 ) ) ;
#147 =( NAMED_UNIT ( * ) PLANE_ANGLE_UNIT ( ) SI_UNIT ( $, .RADIAN. ) );
#148 = PRODUCT_DEFINITION ( 'UNKNOWN', '', #290, #95 ) ;
#149 = AXIS2_PLACEMENT_3D ( 'NONE', #311, #261, #52 ) ;
#150 =( NAMED_UNIT ( * ) SI_UNIT ( $, .STERADIAN. ) SOLID_ANGLE_UNIT ( ) );
#151 = ORIENTED_EDGE ( 'NONE', *, *, #197, .T. ) ;
#152 = CALENDAR_DATE ( 2021, 3, 9 ) ;
#153 = ORIENTED_EDGE ( 'NONE', *, *, #119, .T. ) ;
#154 = PERSON_AND_ORGANIZATION ( #275, #3 ) ;
#155 = ORIENTED_EDGE ( 'NONE', *, *, #213, .T. ) ;
#156 = DATE_TIME_ROLE ( 'classification_date' ) ;
#157 = VERTEX_POINT ( 'NONE', #31 ) ;
#158 = ORIENTED_EDGE ( 'NONE', *, *, #317, .T. ) ;
#159 = ORIENTED_EDGE ( 'NONE', *, *, #208, .F. ) ;
#160 = CIRCLE ( 'NONE', #92, 3.949999999999994404 ) ;
#161 = DIRECTION ( 'NONE',  ( 3.491481338843133355E-15, -1.224646799147353207E-16, 1.000000000000000000 ) ) ;
#162 = DIRECTION ( 'NONE',  ( -3.491481338843133355E-15, 1.224646799147353207E-16, -1.000000000000000000 ) ) ;
#163 = CC_DESIGN_PERSON_AND_ORGANIZATION_ASSIGNMENT ( #18, #323, ( #148 ) ) ;
#164 = CARTESIAN_POINT ( 'NONE',  ( 9.426999614876460059E-14, 2.962025570757159196E-32, 27.00000000000000000 ) ) ;
#165 = ADVANCED_FACE ( 'NONE', ( #110 ), #238, .T. ) ;
#166 = APPROVAL ( #216, 'UNSPECIFIED' ) ;
#167 = DIRECTION ( 'NONE',  ( -3.900617608885549931E-31, -1.000000000000000000, -1.097926250618234861E-16 ) ) ;
#168 = VECTOR ( 'NONE', #294, 1000.000000000000000 ) ;
#169 = DIRECTION ( 'NONE',  ( 0.0000000000000000000, 1.000000000000000000, 0.0000000000000000000 ) ) ;
#170 = FACE_OUTER_BOUND ( 'NONE', #271, .T. ) ;
#171 = EDGE_LOOP ( 'NONE', ( #234, #203 ) ) ;
#172 =( LENGTH_UNIT ( ) NAMED_UNIT ( * ) SI_UNIT ( .MILLI., .METRE. ) );
#173 = AXIS2_PLACEMENT_3D ( 'NONE', #104, #236, #29 ) ;
#174 = CONICAL_SURFACE ( 'NONE', #149, 3.949999999999990852, 1.029744258676649427 ) ;
#175 = COORDINATED_UNIVERSAL_TIME_OFFSET ( 1, 0, .AHEAD. ) ;
#176 = ADVANCED_FACE ( 'NONE', ( #135 ), #244, .T. ) ;
#177 = VERTEX_POINT ( 'NONE', #107 ) ;
#178 = ORIENTED_EDGE ( 'NONE', *, *, #28, .T. ) ;
#179 = CARTESIAN_POINT ( 'NONE',  ( 9.426999614876460059E-14, 2.962025570757159196E-32, 27.00000000000000000 ) ) ;
#180 = DIRECTION ( 'NONE',  ( 0.0000000000000000000, 1.000000000000000000, 0.0000000000000000000 ) ) ;
#181 = PERSON_AND_ORGANIZATION_ROLE ( 'creator' ) ;
#182 = DIRECTION ( 'NONE',  ( -3.491481338843133355E-15, 1.224646799147353207E-16, -1.000000000000000000 ) ) ;
#183 = SECURITY_CLASSIFICATION_LEVEL ( 'unclassified' ) ;
#184 = ORIENTED_EDGE ( 'NONE', *, *, #70, .T. ) ;
#185 = CARTESIAN_POINT ( 'NONE',  ( 9.426999614876460059E-14, -3.306546357697853733E-15, 27.00000000000000000 ) ) ;
#186 = CONICAL_SURFACE ( 'NONE', #32, 3.150000000000000355, 0.7853981633974512766 ) ;
#187 = CARTESIAN_POINT ( 'NONE',  ( 8.770415358056097912E-15, 3.949999999999990852, 2.373399445158884902 ) ) ;
#188 = ADVANCED_FACE ( 'NONE', ( #263 ), #218, .T. ) ;
#189 = APPROVAL_ROLE ( '' ) ;
#190 = FACE_OUTER_BOUND ( 'NONE', #305, .T. ) ;
#191 = AXIS2_PLACEMENT_3D ( 'NONE', #76, #287, #167 ) ;
#192 = APPLICATION_CONTEXT ( 'configuration controlled 3d designs of mechanical parts and assemblies' ) ;
#193 = CYLINDRICAL_SURFACE ( 'NONE', #137, 3.949999999999992628 ) ;
#194 = ORIENTED_EDGE ( 'NONE', *, *, #327, .F. ) ;
#195 = LINE ( 'NONE', #81, #71 ) ;
#196 = LOCAL_TIME ( 9, 22, 42.00000000000000000, #322 ) ;
#197 = EDGE_CURVE ( 'NONE', #16, #242, #80, .T. ) ;
#198 = PERSON_AND_ORGANIZATION ( #275, #3 ) ;
#199 = EDGE_CURVE ( 'NONE', #253, #242, #51, .T. ) ;
#200 = AXIS2_PLACEMENT_3D ( 'NONE', #333, #103, #209 ) ;
#201 = EDGE_LOOP ( 'NONE', ( #140, #282, #260, #144 ) ) ;
#202 = FACE_OUTER_BOUND ( 'NONE', #77, .T. ) ;
#203 = ORIENTED_EDGE ( 'NONE', *, *, #86, .F. ) ;
#204 = CARTESIAN_POINT ( 'NONE',  ( 9.426999614876460059E-14, -3.306546357697853733E-15, 27.00000000000000000 ) ) ;
#205 = CARTESIAN_POINT ( 'NONE',  ( 1.841356539088119943E-13, -3.949999999999997957, 27.00000000000000000 ) ) ;
#206 = APPROVAL_DATE_TIME ( #134, #34 ) ;
#207 = EDGE_LOOP ( 'NONE', ( #258, #295, #91, #67 ) ) ;
#208 = EDGE_CURVE ( 'NONE', #242, #253, #223, .T. ) ;
#209 = DIRECTION ( 'NONE',  ( 4.275831445896958607E-31, 1.000000000000000000, 1.224646799147352961E-16 ) ) ;
#210 = PERSON_AND_ORGANIZATION_ROLE ( 'design_supplier' ) ;
#211 = CARTESIAN_POINT ( 'NONE',  ( 8.286679872392891237E-15, -3.949999999999990852, 2.373399445158884014 ) ) ;
#212 = PERSON_AND_ORGANIZATION ( #275, #3 ) ;
#213 = EDGE_CURVE ( 'NONE', #228, #23, #57, .T. ) ;
#214 = DIRECTION ( 'NONE',  ( 0.0000000000000000000, 1.000000000000000000, 0.0000000000000000000 ) ) ;
#215 = AXIS2_PLACEMENT_3D ( 'NONE', #185, #246, #87 ) ;
#216 = APPROVAL_STATUS ( 'not_yet_approved' ) ;
#217 = CARTESIAN_POINT ( 'NONE',  ( 8.770415358056097912E-15, 3.949999999999990852, 2.373399445158884902 ) ) ;
#218 = CONICAL_SURFACE ( 'NONE', #30, 3.150000000000000355, 0.7853981633974512766 ) ;
#219 = EDGE_LOOP ( 'NONE', ( #314, #113, #159, #21 ) ) ;
#220 = FACE_OUTER_BOUND ( 'NONE', #128, .T. ) ;
#221 = CARTESIAN_POINT ( 'NONE',  ( 0.0000000000000000000, 0.0000000000000000000, 0.0000000000000000000 ) ) ;
#222 = DIRECTION ( 'NONE',  ( -3.491481338843133355E-15, 1.224646799147353207E-16, -1.000000000000000000 ) ) ;
#223 = CIRCLE ( 'NONE', #310, 3.949999999999990852 ) ;
#224 = CARTESIAN_POINT ( 'NONE',  ( 2.758270257686075477E-13, -9.674709713264090904E-15, 79.00000000000000000 ) ) ;
#225 = APPROVAL_DATE_TIME ( #90, #2 ) ;
#226 = CC_DESIGN_DATE_AND_TIME_ASSIGNMENT ( #105, #156, ( #132 ) ) ;
#227 = DATE_AND_TIME ( #120, #88 ) ;
#228 = VERTEX_POINT ( 'NONE', #109 ) ;
#229 = DIRECTION ( 'NONE',  ( -3.491481338843133355E-15, 1.224646799147353207E-16, -1.000000000000000000 ) ) ;
#230 = DIRECTION ( 'NONE',  ( -2.468850131082257455E-15, 0.7071067811865497932, -0.7071067811865453523 ) ) ;
#231 = CALENDAR_DATE ( 2021, 3, 9 ) ;
#232 = FACE_OUTER_BOUND ( 'NONE', #219, .T. ) ;
#233 = CIRCLE ( 'NONE', #130, 3.150000000000000355 ) ;
#234 = ORIENTED_EDGE ( 'NONE', *, *, #306, .F. ) ;
#235 = CALENDAR_DATE ( 2021, 3, 9 ) ;
#236 = DIRECTION ( 'NONE',  ( -3.491481338843133355E-15, 1.224646799147353207E-16, -1.000000000000000000 ) ) ;
#237 = PERSON_AND_ORGANIZATION ( #275, #3 ) ;
#238 = PLANE ( 'NONE',  #320 ) ;
#239 = CARTESIAN_POINT ( 'NONE',  ( 8.286679872392892815E-15, -2.906576033611932000E-16, 2.373399445158884458 ) ) ;
#240 =( GEOMETRIC_REPRESENTATION_CONTEXT ( 3 ) GLOBAL_UNCERTAINTY_ASSIGNED_CONTEXT ( ( #26 ) ) GLOBAL_UNIT_ASSIGNED_CONTEXT ( ( #172, #147, #150 ) ) REPRESENTATION_CONTEXT ( 'NONE', 'WORKASPACE' ) );
#241 = CARTESIAN_POINT ( 'NONE',  ( 2.758270257686075477E-13, -9.674709713264090904E-15, 79.00000000000000000 ) ) ;
#242 = VERTEX_POINT ( 'NONE', #217 ) ;
#243 = EDGE_CURVE ( 'NONE', #16, #253, #195, .T. ) ;
#244 = CONICAL_SURFACE ( 'NONE', #191, 3.949999999999990852, 1.029744258676649427 ) ;
#245 = ADVANCED_FACE ( 'NONE', ( #190 ), #186, .T. ) ;
#246 = DIRECTION ( 'NONE',  ( -3.491481338843133355E-15, 1.224646799147353207E-16, -1.000000000000000000 ) ) ;
#247 = PERSON_AND_ORGANIZATION ( #275, #3 ) ;
#248 = APPLICATION_PROTOCOL_DEFINITION ( 'international standard', 'config_control_design', 1994, #7 ) ;
#249 = VECTOR ( 'NONE', #222, 1000.000000000000000 ) ;
#250 = CC_DESIGN_DATE_AND_TIME_ASSIGNMENT ( #227, #96, ( #148 ) ) ;
#251 = PERSON_AND_ORGANIZATION_ROLE ( 'design_owner' ) ;
#252 = DIRECTION ( 'NONE',  ( 0.0000000000000000000, 0.0000000000000000000, 1.000000000000000000 ) ) ;
#253 = VERTEX_POINT ( 'NONE', #211 ) ;
#254 = AXIS2_PLACEMENT_3D ( 'NONE', #33, #308, #145 ) ;
#255 = ORIENTED_EDGE ( 'NONE', *, *, #213, .F. ) ;
#256 = VERTEX_POINT ( 'NONE', #56 ) ;
#257 = APPROVAL_DATE_TIME ( #53, #166 ) ;
#258 = ORIENTED_EDGE ( 'NONE', *, *, #327, .T. ) ;
#259 = VECTOR ( 'NONE', #11, 1000.000000000000000 ) ;
#260 = ORIENTED_EDGE ( 'NONE', *, *, #291, .T. ) ;
#261 = DIRECTION ( 'NONE',  ( 3.491481338843133355E-15, -1.224646799147353207E-16, 1.000000000000000000 ) ) ;
#262 = DIRECTION ( 'NONE',  ( 3.900617608885549931E-31, 1.000000000000000000, 1.097926250618234861E-16 ) ) ;
#263 = FACE_OUTER_BOUND ( 'NONE', #207, .T. ) ;
#264 = APPROVAL_PERSON_ORGANIZATION ( #212, #166, #309 ) ;
#265 = ADVANCED_FACE ( 'NONE', ( #220 ), #269, .T. ) ;
#266 = ORIENTED_EDGE ( 'NONE', *, *, #317, .F. ) ;
#267 = ADVANCED_FACE ( 'NONE', ( #85 ), #193, .T. ) ;
#268 = LOCAL_TIME ( 9, 22, 42.00000000000000000, #72 ) ;
#269 = CYLINDRICAL_SURFACE ( 'NONE', #63, 3.949999999999997069 ) ;
#270 = DIRECTION ( 'NONE',  ( -3.491481338843133355E-15, 1.224646799147353207E-16, -1.000000000000000000 ) ) ;
#271 = EDGE_LOOP ( 'NONE', ( #194, #82 ) ) ;
#272 = DIRECTION ( 'NONE',  ( 0.0000000000000000000, 1.000000000000000000, 0.0000000000000000000 ) ) ;
#273 = DIRECTION ( 'NONE',  ( -3.491481338843133355E-15, 1.224646799147353207E-16, -1.000000000000000000 ) ) ;
#274 = CIRCLE ( 'NONE', #173, 3.150000000000000355 ) ;
#275 = PERSON ( 'UNSPECIFIED', 'UNSPECIFIED', 'UNSPECIFIED', ('UNSPECIFIED'), ('UNSPECIFIED'), ('UNSPECIFIED') ) ;
#276 = LINE ( 'NONE', #41, #17 ) ;
#277 = CARTESIAN_POINT ( 'NONE',  ( 2.758270257686075477E-13, 2.362121657692412048E-32, 79.00000000000000000 ) ) ;
#278 = MANIFOLD_SOLID_BREP ( 'Corps-Déplacer/Copier1[2]', #24 ) ;
#279 = DIRECTION ( 'NONE',  ( -3.491481338843133355E-15, 1.224646799147353207E-16, -1.000000000000000000 ) ) ;
#280 = CIRCLE ( 'NONE', #315, 3.950000000000000178 ) ;
#281 = CARTESIAN_POINT ( 'NONE',  ( 9.426999614876460059E-14, -3.306546357697853733E-15, 27.00000000000000000 ) ) ;
#282 = ORIENTED_EDGE ( 'NONE', *, *, #86, .T. ) ;
#283 = DIRECTION ( 'NONE',  ( 0.0000000000000000000, 1.000000000000000000, 0.0000000000000000000 ) ) ;
#284 = ORIENTED_EDGE ( 'NONE', *, *, #138, .T. ) ;
#285 = AXIS2_PLACEMENT_3D ( 'NONE', #330, #307, #75 ) ;
#286 = DIRECTION ( 'NONE',  ( 1.798245827342160711E-15, -0.8571673007021097801, 0.5150380749100583744 ) ) ;
#287 = DIRECTION ( 'NONE',  ( 3.491481338843133355E-15, -1.224646799147353207E-16, 1.000000000000000000 ) ) ;
#288 = CARTESIAN_POINT ( 'NONE',  ( 8.286679872392892815E-15, -2.906576033611932000E-16, 2.373399445158884458 ) ) ;
#289 = CC_DESIGN_PERSON_AND_ORGANIZATION_ASSIGNMENT ( #154, #210, ( #290 ) ) ;
#290 = PRODUCT_DEFINITION_FORMATION_WITH_SPECIFIED_SOURCE ( 'ANY', '', #78, .NOT_KNOWN. ) ;
#291 = EDGE_CURVE ( 'NONE', #126, #242, #335, .T. ) ;
#292 = FACE_OUTER_BOUND ( 'NONE', #299, .T. ) ;
#293 = CIRCLE ( 'NONE', #285, 3.950000000000000178 ) ;
#294 = DIRECTION ( 'NONE',  ( -3.491481338843133355E-15, 1.224646799147353207E-16, -1.000000000000000000 ) ) ;
#295 = ORIENTED_EDGE ( 'NONE', *, *, #111, .T. ) ;
#296 = ADVANCED_FACE ( 'NONE', ( #170 ), #64, .F. ) ;
#297 = ORIENTED_EDGE ( 'NONE', *, *, #243, .T. ) ;
#298 = DIRECTION ( 'NONE',  ( 4.275831445896958607E-31, 1.000000000000000000, 1.224646799147353207E-16 ) ) ;
#299 = EDGE_LOOP ( 'NONE', ( #303, #297, #9 ) ) ;
#300 = DIRECTION ( 'NONE',  ( -3.491481338843133355E-15, 1.224646799147353207E-16, -1.000000000000000000 ) ) ;
#301 = DIRECTION ( 'NONE',  ( 0.0000000000000000000, 1.000000000000000000, 0.0000000000000000000 ) ) ;
#302 = DIRECTION ( 'NONE',  ( -3.491481338843133355E-15, 1.224646799147353207E-16, -1.000000000000000000 ) ) ;
#303 = ORIENTED_EDGE ( 'NONE', *, *, #197, .F. ) ;
#304 = VECTOR ( 'NONE', #55, 1000.000000000000114 ) ;
#305 = EDGE_LOOP ( 'NONE', ( #49, #284, #20, #6 ) ) ;
#306 = EDGE_CURVE ( 'NONE', #126, #328, #38, .T. ) ;
#307 = DIRECTION ( 'NONE',  ( -3.491481338843133355E-15, 1.224646799147353207E-16, -1.000000000000000000 ) ) ;
#308 = DIRECTION ( 'NONE',  ( -3.491481338843133355E-15, 1.224646799147353207E-16, -1.000000000000000000 ) ) ;
#309 = APPROVAL_ROLE ( '' ) ;
#310 = AXIS2_PLACEMENT_3D ( 'NONE', #239, #270, #4 ) ;
#311 = CARTESIAN_POINT ( 'NONE',  ( 8.286679872392892815E-15, -2.906576033611932000E-16, 2.373399445158884458 ) ) ;
#312 = DIRECTION ( 'NONE',  ( -3.491481338843133355E-15, 1.224646799147353207E-16, -1.000000000000000000 ) ) ;
#313 = CC_DESIGN_PERSON_AND_ORGANIZATION_ASSIGNMENT ( #198, #251, ( #78 ) ) ;
#314 = ORIENTED_EDGE ( 'NONE', *, *, #306, .T. ) ;
#315 = AXIS2_PLACEMENT_3D ( 'NONE', #133, #229, #180 ) ;
#316 = APPROVAL_PERSON_ORGANIZATION ( #124, #34, #189 ) ;
#317 = EDGE_CURVE ( 'NONE', #256, #228, #36, .T. ) ;
#318 = CYLINDRICAL_SURFACE ( 'NONE', #254, 3.949999999999997069 ) ;
#319 = DIRECTION ( 'NONE',  ( -3.491481338843133355E-15, 1.224646799147353207E-16, -1.000000000000000000 ) ) ;
#320 = AXIS2_PLACEMENT_3D ( 'NONE', #164, #161, #58 ) ;
#321 = ADVANCED_FACE ( 'NONE', ( #202 ), #68, .F. ) ;
#322 = COORDINATED_UNIVERSAL_TIME_OFFSET ( 1, 0, .AHEAD. ) ;
#323 = PERSON_AND_ORGANIZATION_ROLE ( 'creator' ) ;
#324 = DIRECTION ( 'NONE',  ( -3.491481338843133355E-15, 1.224646799147353207E-16, -1.000000000000000000 ) ) ;
#325 = VECTOR ( 'NONE', #324, 1000.000000000000000 ) ;
#326 = APPROVAL_STATUS ( 'not_yet_approved' ) ;
#327 = EDGE_CURVE ( 'NONE', #177, #157, #233, .T. ) ;
#328 = VERTEX_POINT ( 'NONE', #66 ) ;
#329 = DIRECTION ( 'NONE',  ( 1.000000000000000000, 0.0000000000000000000, 0.0000000000000000000 ) ) ;
#330 = CARTESIAN_POINT ( 'NONE',  ( 2.730338406975330915E-13, -9.576737969332302470E-15, 78.20000000000000284 ) ) ;
#331 = LINE ( 'NONE', #136, #168 ) ;
#332 = CIRCLE ( 'NONE', #142, 3.949999999999994404 ) ;
#333 = CARTESIAN_POINT ( 'NONE',  ( 0.0000000000000000000, 0.0000000000000000000, 0.0000000000000000000 ) ) ;
#334 = COORDINATED_UNIVERSAL_TIME_OFFSET ( 1, 0, .AHEAD. ) ;
#335 = LINE ( 'NONE', #15, #259 ) ;
#336 = PERSON_AND_ORGANIZATION_ROLE ( 'classification_officer' ) ;
#337 = CARTESIAN_POINT ( 'NONE',  ( 2.758270257686075477E-13, -9.674709713264090904E-15, 79.00000000000000000 ) ) ;
ENDSEC;
END-ISO-10303-21;
