ISO-10303-21;
HEADER;
FILE_DESCRIPTION (( 'STEP AP203' ),
    '1' );
FILE_NAME ('53054.step',
    '2021-09-03T07:22:41',
    ( '' ),
    ( '' ),
    'SwSTEP 2.0',
    'SolidWorks 2019',
    '' );
FILE_SCHEMA (( 'CONFIG_CONTROL_DESIGN' ));
ENDSEC;

DATA;
#1 = COORDINATED_UNIVERSAL_TIME_OFFSET ( 1, 0, .AHEAD. ) ;
#2 = CARTESIAN_POINT ( 'NONE',  ( 8.728703347107833388E-14, 3.649999999999985700, 25.00000000000000000 ) ) ;
#3 = APPROVAL ( #202, 'UNSPECIFIED' ) ;
#4 = CONICAL_SURFACE ( 'NONE', #47, 3.649999999999986144, 1.029744258676649649 ) ;
#5 = APPROVAL_PERSON_ORGANIZATION ( #252, #185, #71 ) ;
#6 = DIRECTION ( 'NONE',  ( -3.491481338843133355E-15, 1.224646799147353207E-16, -1.000000000000000000 ) ) ;
#7 = DIRECTION ( 'NONE',  ( 0.0000000000000000000, 1.000000000000000000, 0.0000000000000000000 ) ) ;
#8 = VERTEX_POINT ( 'NONE', #2 ) ;
#9 = EDGE_LOOP ( 'NONE', ( #260, #117 ) ) ;
#10 = AXIS2_PLACEMENT_3D ( 'NONE', #195, #227, #222 ) ;
#11 = ORIENTED_EDGE ( 'NONE', *, *, #110, .T. ) ;
#12 = DIRECTION ( 'NONE',  ( -3.491481338843133355E-15, 1.224646799147353207E-16, -1.000000000000000000 ) ) ;
#13 = CARTESIAN_POINT ( 'NONE',  ( 7.657311780818733739E-15, -2.685823423464185342E-16, 2.193141259450610558 ) ) ;
#14 = ORIENTED_EDGE ( 'NONE', *, *, #23, .T. ) ;
#15 = ADVANCED_FACE ( 'NONE', ( #206 ), #278, .T. ) ;
#16 = CARTESIAN_POINT ( 'NONE',  ( 8.728703347107833388E-14, -3.061616997868383043E-15, 25.00000000000000000 ) ) ;
#17 = ORIENTED_EDGE ( 'NONE', *, *, #286, .T. ) ;
#18 = DIRECTION ( 'NONE',  ( 0.0000000000000000000, 1.000000000000000000, 0.0000000000000000000 ) ) ;
#19 = CARTESIAN_POINT ( 'NONE',  ( 0.0000000000000000000, 0.0000000000000000000, 0.0000000000000000000 ) ) ;
#20 = AXIS2_PLACEMENT_3D ( 'NONE', #237, #12, #290 ) ;
#21 = CARTESIAN_POINT ( 'NONE',  ( 2.583696190743918430E-13, -9.062386313690413585E-15, 74.00000000000000000 ) ) ;
#22 = ORIENTED_EDGE ( 'NONE', *, *, #286, .F. ) ;
#23 = EDGE_CURVE ( 'NONE', #144, #42, #83, .T. ) ;
#24 = AXIS2_PLACEMENT_3D ( 'NONE', #166, #6, #103 ) ;
#25 = CARTESIAN_POINT ( 'NONE',  ( 0.0000000000000000000, 0.0000000000000000000, 0.0000000000000000000 ) ) ;
#26 = LOCAL_TIME ( 9, 22, 41.00000000000000000, #232 ) ;
#27 = PERSON_AND_ORGANIZATION ( #186, #108 ) ;
#28 = CARTESIAN_POINT ( 'NONE',  ( 1.560678477752386414E-30, 3.649999999999991918, 4.469960816887828569E-16 ) ) ;
#29 = CC_DESIGN_PERSON_AND_ORGANIZATION_ASSIGNMENT ( #251, #56, ( #259 ) ) ;
#30 = APPROVAL_DATE_TIME ( #334, #185 ) ;
#31 = DIRECTION ( 'NONE',  ( 3.491481338843133355E-15, -1.224646799147353207E-16, 1.000000000000000000 ) ) ;
#32 = AXIS2_PLACEMENT_3D ( 'NONE', #154, #192, #72 ) ;
#33 = AXIS2_PLACEMENT_3D ( 'NONE', #25, #97, #153 ) ;
#34 = LINE ( 'NONE', #263, #151 ) ;
#35 = PRODUCT_DEFINITION_SHAPE ( 'NONE', 'NONE',  #259 ) ;
#36 = VERTEX_POINT ( 'NONE', #76 ) ;
#37 = ORIENTED_EDGE ( 'NONE', *, *, #110, .F. ) ;
#38 = DIRECTION ( 'NONE',  ( -4.221216316465190249E-31, -1.000000000000000000, -1.188166764367680533E-16 ) ) ;
#39 = EDGE_CURVE ( 'NONE', #282, #89, #254, .T. ) ;
#40 = DIRECTION ( 'NONE',  ( -3.491481338843133355E-15, 1.224646799147353207E-16, -1.000000000000000000 ) ) ;
#41 =( NAMED_UNIT ( * ) SI_UNIT ( $, .STERADIAN. ) SOLID_ANGLE_UNIT ( ) );
#42 = VERTEX_POINT ( 'NONE', #336 ) ;
#43 = AXIS2_PLACEMENT_3D ( 'NONE', #121, #93, #88 ) ;
#44 = CARTESIAN_POINT ( 'NONE',  ( 7.657311780818732161E-15, -3.649999999999986589, 2.193141259450610114 ) ) ;
#45 = DIRECTION ( 'NONE',  ( 1.798245827342160317E-15, -0.8571673007021098911, 0.5150380749100582634 ) ) ;
#46 = PLANE ( 'NONE',  #285 ) ;
#47 = AXIS2_PLACEMENT_3D ( 'NONE', #58, #59, #38 ) ;
#48 = CIRCLE ( 'NONE', #86, 3.649999999999986144 ) ;
#49 = EDGE_CURVE ( 'NONE', #89, #138, #184, .T. ) ;
#50 = ORIENTED_EDGE ( 'NONE', *, *, #193, .F. ) ;
#51 = APPROVAL_DATE_TIME ( #180, #245 ) ;
#52 = VECTOR ( 'NONE', #122, 1000.000000000000000 ) ;
#53 = COORDINATED_UNIVERSAL_TIME_OFFSET ( 1, 0, .AHEAD. ) ;
#54 = DIRECTION ( 'NONE',  ( -3.491481338843133355E-15, 1.224646799147353207E-16, -1.000000000000000000 ) ) ;
#55 = ORIENTED_EDGE ( 'NONE', *, *, #246, .T. ) ;
#56 = PERSON_AND_ORGANIZATION_ROLE ( 'creator' ) ;
#57 = DIRECTION ( 'NONE',  ( -3.491481338843133355E-15, 1.224646799147353207E-16, -1.000000000000000000 ) ) ;
#58 = CARTESIAN_POINT ( 'NONE',  ( 7.657311780818733739E-15, -2.685823423464185342E-16, 2.193141259450610558 ) ) ;
#59 = DIRECTION ( 'NONE',  ( 3.491481338843133355E-15, -1.224646799147353207E-16, 1.000000000000000000 ) ) ;
#60 = ORIENTED_EDGE ( 'NONE', *, *, #68, .F. ) ;
#61 = CARTESIAN_POINT ( 'NONE',  ( 2.583696190743918430E-13, 2.849999999999985878, 74.00000000000000000 ) ) ;
#62 = DIRECTION ( 'NONE',  ( 0.0000000000000000000, 1.000000000000000000, 0.0000000000000000000 ) ) ;
#63 = DIRECTION ( 'NONE',  ( 3.491481338843133355E-15, -1.224646799147353207E-16, 1.000000000000000000 ) ) ;
#64 = AXIS2_PLACEMENT_3D ( 'NONE', #92, #177, #62 ) ;
#65 = FACE_OUTER_BOUND ( 'NONE', #198, .T. ) ;
#66 = DIRECTION ( 'NONE',  ( 4.221216316465190249E-31, 1.000000000000000000, 1.188166764367680533E-16 ) ) ;
#67 = FACE_OUTER_BOUND ( 'NONE', #275, .T. ) ;
#68 = EDGE_CURVE ( 'NONE', #36, #115, #34, .T. ) ;
#69 = CIRCLE ( 'NONE', #24, 3.649999999999995026 ) ;
#70 = ORIENTED_EDGE ( 'NONE', *, *, #106, .F. ) ;
#71 = APPROVAL_ROLE ( '' ) ;
#72 = DIRECTION ( 'NONE',  ( 0.0000000000000000000, 1.000000000000000000, 0.0000000000000000000 ) ) ;
#73 = EDGE_LOOP ( 'NONE', ( #317, #114, #249, #332 ) ) ;
#74 = AXIS2_PLACEMENT_3D ( 'NONE', #127, #281, #235 ) ;
#75 = APPROVAL_ROLE ( '' ) ;
#76 = CARTESIAN_POINT ( 'NONE',  ( 8.728703347107833388E-14, 3.649999999999985700, 25.00000000000000000 ) ) ;
#77 = ORIENTED_EDGE ( 'NONE', *, *, #94, .T. ) ;
#78 = CARTESIAN_POINT ( 'NONE',  ( 2.587186434121488799E-13, -2.850000000000004086, 74.00000000000000000 ) ) ;
#79 = VERTEX_POINT ( 'NONE', #244 ) ;
#80 = CC_DESIGN_PERSON_AND_ORGANIZATION_ASSIGNMENT ( #205, #229, ( #271 ) ) ;
#81 = CC_DESIGN_APPROVAL ( #245, ( #226 ) ) ;
#82 = ORIENTED_EDGE ( 'NONE', *, *, #106, .T. ) ;
#83 = LINE ( 'NONE', #257, #100 ) ;
#84 = CC_DESIGN_PERSON_AND_ORGANIZATION_ASSIGNMENT ( #333, #126, ( #308 ) ) ;
#85 = CARTESIAN_POINT ( 'NONE',  ( 0.0000000000000000000, 0.0000000000000000000, 0.0000000000000000000 ) ) ;
#86 = AXIS2_PLACEMENT_3D ( 'NONE', #13, #219, #296 ) ;
#87 = CARTESIAN_POINT ( 'NONE',  ( 4.791916870763729123E-14, -3.649999999999991918, 25.00000000000000000 ) ) ;
#88 = DIRECTION ( 'NONE',  ( 4.275831445896958607E-31, 1.000000000000000000, 1.224646799147353207E-16 ) ) ;
#89 = VERTEX_POINT ( 'NONE', #156 ) ;
#90 = CARTESIAN_POINT ( 'NONE',  ( 2.573710367485774852E-13, -2.850000000000004086, 74.00000000000000000 ) ) ;
#91 = CIRCLE ( 'NONE', #277, 2.849999999999994760 ) ;
#92 = CARTESIAN_POINT ( 'NONE',  ( 8.728703347107833388E-14, -3.061616997868383043E-15, 25.00000000000000000 ) ) ;
#93 = DIRECTION ( 'NONE',  ( -3.491481338843133355E-15, 1.224646799147353207E-16, -1.000000000000000000 ) ) ;
#94 = EDGE_CURVE ( 'NONE', #89, #42, #218, .T. ) ;
#95 = MECHANICAL_CONTEXT ( 'NONE', #210, 'mechanical' ) ;
#96 = APPROVAL_STATUS ( 'not_yet_approved' ) ;
#97 = DIRECTION ( 'NONE',  ( 0.0000000000000000000, 0.0000000000000000000, 1.000000000000000000 ) ) ;
#98 = CARTESIAN_POINT ( 'NONE',  ( 8.104307862507517976E-15, 3.649999999999985700, 2.193141259450611003 ) ) ;
#99 = DIRECTION ( 'NONE',  ( 4.275831445896958607E-31, 1.000000000000000000, 1.224646799147353207E-16 ) ) ;
#100 = VECTOR ( 'NONE', #217, 1000.000000000000114 ) ;
#101 = DATE_AND_TIME ( #234, #242 ) ;
#102 = VECTOR ( 'NONE', #248, 999.9999999999998863 ) ;
#103 = DIRECTION ( 'NONE',  ( 0.0000000000000000000, 1.000000000000000000, 0.0000000000000000000 ) ) ;
#104 = CARTESIAN_POINT ( 'NONE',  ( 4.469960816887814764E-16, -3.649999999999991918, -4.469960816887844346E-16 ) ) ;
#105 = EDGE_LOOP ( 'NONE', ( #216, #273, #14, #168 ) ) ;
#106 = EDGE_CURVE ( 'NONE', #138, #8, #225, .T. ) ;
#107 = CLOSED_SHELL ( 'NONE', ( #15, #160, #306, #261, #135 ) ) ;
#108 = ORGANIZATION ( 'UNSPECIFIED', 'UNSPECIFIED', '' ) ;
#109 = ORIENTED_EDGE ( 'NONE', *, *, #193, .T. ) ;
#110 = EDGE_CURVE ( 'NONE', #42, #8, #322, .T. ) ;
#111 = ORIENTED_EDGE ( 'NONE', *, *, #68, .T. ) ;
#112 = DIRECTION ( 'NONE',  ( -3.491481338843133355E-15, 1.224646799147353207E-16, -1.000000000000000000 ) ) ;
#113 = CONICAL_SURFACE ( 'NONE', #20, 2.849999999999994760, 0.7853981633974512766 ) ;
#114 = ORIENTED_EDGE ( 'NONE', *, *, #39, .T. ) ;
#115 = VERTEX_POINT ( 'NONE', #98 ) ;
#116 = LINE ( 'NONE', #201, #52 ) ;
#117 = ORIENTED_EDGE ( 'NONE', *, *, #208, .F. ) ;
#118 = ADVANCED_FACE ( 'NONE', ( #256 ), #125, .T. ) ;
#119 = CARTESIAN_POINT ( 'NONE',  ( 7.657311780818733739E-15, -2.685823423464185342E-16, 2.193141259450610558 ) ) ;
#120 = VERTEX_POINT ( 'NONE', #215 ) ;
#121 = CARTESIAN_POINT ( 'NONE',  ( 0.0000000000000000000, 0.0000000000000000000, 0.0000000000000000000 ) ) ;
#122 = DIRECTION ( 'NONE',  ( -3.491481338843133355E-15, 1.224646799147353207E-16, -1.000000000000000000 ) ) ;
#123 = ADVANCED_FACE ( 'NONE', ( #233 ), #314, .T. ) ;
#124 = CALENDAR_DATE ( 2021, 3, 9 ) ;
#125 = CONICAL_SURFACE ( 'NONE', #74, 2.849999999999994760, 0.7853981633974512766 ) ;
#126 = PERSON_AND_ORGANIZATION_ROLE ( 'design_owner' ) ;
#127 = CARTESIAN_POINT ( 'NONE',  ( 2.583696190743918430E-13, -9.062386313690413585E-15, 74.00000000000000000 ) ) ;
#128 = PERSON_AND_ORGANIZATION_ROLE ( 'design_supplier' ) ;
#129 = FACE_OUTER_BOUND ( 'NONE', #105, .T. ) ;
#130 = LOCAL_TIME ( 9, 22, 41.00000000000000000, #53 ) ;
#131 = EDGE_CURVE ( 'NONE', #144, #282, #318, .T. ) ;
#132 = DIRECTION ( 'NONE',  ( -3.491481338843133355E-15, 1.224646799147353207E-16, -1.000000000000000000 ) ) ;
#133 = CC_DESIGN_DATE_AND_TIME_ASSIGNMENT ( #101, #211, ( #226 ) ) ;
#134 = ORIENTED_EDGE ( 'NONE', *, *, #319, .T. ) ;
#135 = ADVANCED_FACE ( 'NONE', ( #209 ), #164, .T. ) ;
#136 = ORIENTED_EDGE ( 'NONE', *, *, #175, .F. ) ;
#137 = CC_DESIGN_APPROVAL ( #185, ( #271 ) ) ;
#138 = VERTEX_POINT ( 'NONE', #287 ) ;
#139 = CARTESIAN_POINT ( 'NONE',  ( 8.728703347107833388E-14, -3.061616997868383043E-15, 25.00000000000000000 ) ) ;
#140 =( LENGTH_UNIT ( ) NAMED_UNIT ( * ) SI_UNIT ( .MILLI., .METRE. ) );
#141 = ORIENTED_EDGE ( 'NONE', *, *, #131, .F. ) ;
#142 = ADVANCED_FACE ( 'NONE', ( #129 ), #113, .T. ) ;
#143 = AXIS2_PLACEMENT_3D ( 'NONE', #327, #63, #223 ) ;
#144 = VERTEX_POINT ( 'NONE', #61 ) ;
#145 = CARTESIAN_POINT ( 'NONE',  ( 8.104307862507517976E-15, 3.649999999999985700, 2.193141259450611003 ) ) ;
#146 = DIRECTION ( 'NONE',  ( -3.491481338843133355E-15, 1.224646799147353207E-16, -1.000000000000000000 ) ) ;
#147 = AXIS2_PLACEMENT_3D ( 'NONE', #337, #132, #158 ) ;
#148 = VECTOR ( 'NONE', #45, 1000.000000000000000 ) ;
#149 = APPROVAL_DATE_TIME ( #255, #3 ) ;
#150 = SHAPE_DEFINITION_REPRESENTATION ( #35, #304 ) ;
#151 = VECTOR ( 'NONE', #57, 1000.000000000000000 ) ;
#152 = CIRCLE ( 'NONE', #64, 3.649999999999988809 ) ;
#153 = DIRECTION ( 'NONE',  ( 1.000000000000000000, 0.0000000000000000000, 0.0000000000000000000 ) ) ;
#154 = CARTESIAN_POINT ( 'NONE',  ( 2.555764340033173364E-13, -8.964414569758626729E-15, 73.20000000000000284 ) ) ;
#155 = APPROVAL_STATUS ( 'not_yet_approved' ) ;
#156 = CARTESIAN_POINT ( 'NONE',  ( 1.718787298188864821E-13, -3.650000000000003464, 73.20000000000000284 ) ) ;
#157 = EDGE_CURVE ( 'NONE', #42, #89, #69, .T. ) ;
#158 = DIRECTION ( 'NONE',  ( 4.275831445896958607E-31, 1.000000000000000000, 1.224646799147352961E-16 ) ) ;
#159 = AXIS2_PLACEMENT_3D ( 'NONE', #19, #146, #329 ) ;
#160 = ADVANCED_FACE ( 'NONE', ( #283 ), #4, .T. ) ;
#161 = EDGE_LOOP ( 'NONE', ( #50, #162, #111, #189 ) ) ;
#162 = ORIENTED_EDGE ( 'NONE', *, *, #208, .T. ) ;
#163 = AXIS2_PLACEMENT_3D ( 'NONE', #190, #31, #188 ) ;
#164 = PLANE ( 'NONE',  #163 ) ;
#165 = MANIFOLD_SOLID_BREP ( 'Corps-Déplacer/Copier1[2]', #107 ) ;
#166 = CARTESIAN_POINT ( 'NONE',  ( 2.555764340033173364E-13, -8.964414569758626729E-15, 73.20000000000000284 ) ) ;
#167 =( NAMED_UNIT ( * ) PLANE_ANGLE_UNIT ( ) SI_UNIT ( $, .RADIAN. ) );
#168 = ORIENTED_EDGE ( 'NONE', *, *, #94, .F. ) ;
#169 = EDGE_LOOP ( 'NONE', ( #297, #82 ) ) ;
#170 = PLANE ( 'NONE',  #10 ) ;
#171 = AXIS2_PLACEMENT_3D ( 'NONE', #321, #239, #7 ) ;
#172 = APPROVAL_PERSON_ORGANIZATION ( #313, #245, #204 ) ;
#173 = APPROVAL_PERSON_ORGANIZATION ( #309, #3, #75 ) ;
#174 = DIRECTION ( 'NONE',  ( 0.0000000000000000000, 1.000000000000000000, 0.0000000000000000000 ) ) ;
#175 = EDGE_CURVE ( 'NONE', #8, #138, #200, .T. ) ;
#176 = DIRECTION ( 'NONE',  ( -3.491481338843133355E-15, 1.224646799147353207E-16, -1.000000000000000000 ) ) ;
#177 = DIRECTION ( 'NONE',  ( -3.491481338843133355E-15, 1.224646799147353207E-16, -1.000000000000000000 ) ) ;
#178 = VECTOR ( 'NONE', #262, 1000.000000000000114 ) ;
#179 = LOCAL_TIME ( 9, 22, 41.00000000000000000, #307 ) ;
#180 = DATE_AND_TIME ( #124, #220 ) ;
#181 = CARTESIAN_POINT ( 'NONE',  ( 8.728703347107833388E-14, -3.061616997868383043E-15, 25.00000000000000000 ) ) ;
#182 = AXIS2_PLACEMENT_3D ( 'NONE', #85, #310, #99 ) ;
#183 = APPLICATION_PROTOCOL_DEFINITION ( 'international standard', 'config_control_design', 1994, #293 ) ;
#184 = LINE ( 'NONE', #104, #241 ) ;
#185 = APPROVAL ( #155, 'UNSPECIFIED' ) ;
#186 = PERSON ( 'UNSPECIFIED', 'UNSPECIFIED', 'UNSPECIFIED', ('UNSPECIFIED'), ('UNSPECIFIED'), ('UNSPECIFIED') ) ;
#187 = SECURITY_CLASSIFICATION_LEVEL ( 'unclassified' ) ;
#188 = DIRECTION ( 'NONE',  ( -4.275831445896958607E-31, -1.000000000000000000, -1.224646799147353207E-16 ) ) ;
#189 = ORIENTED_EDGE ( 'NONE', *, *, #203, .F. ) ;
#190 = CARTESIAN_POINT ( 'NONE',  ( 8.728703347107833388E-14, 2.737061603357877271E-32, 25.00000000000000000 ) ) ;
#191 = CIRCLE ( 'NONE', #270, 3.649999999999988809 ) ;
#192 = DIRECTION ( 'NONE',  ( -3.491481338843133355E-15, 1.224646799147353207E-16, -1.000000000000000000 ) ) ;
#193 = EDGE_CURVE ( 'NONE', #295, #120, #116, .T. ) ;
#194 = ORIENTED_EDGE ( 'NONE', *, *, #246, .F. ) ;
#195 = CARTESIAN_POINT ( 'NONE',  ( 2.583696190743918430E-13, 2.137157690293129849E-32, 74.00000000000000000 ) ) ;
#196 = DIRECTION ( 'NONE',  ( -4.275831445896958607E-31, -1.000000000000000000, -1.224646799147353207E-16 ) ) ;
#197 = FACE_OUTER_BOUND ( 'NONE', #169, .T. ) ;
#198 = EDGE_LOOP ( 'NONE', ( #224, #214, #136, #37 ) ) ;
#199 = EDGE_CURVE ( 'NONE', #282, #144, #91, .T. ) ;
#200 = CIRCLE ( 'NONE', #288, 3.649999999999988809 ) ;
#201 = CARTESIAN_POINT ( 'NONE',  ( 4.469960816887808847E-16, -3.649999999999987477, -4.469960816887839416E-16 ) ) ;
#202 = APPROVAL_STATUS ( 'not_yet_approved' ) ;
#203 = EDGE_CURVE ( 'NONE', #120, #115, #258, .T. ) ;
#204 = APPROVAL_ROLE ( '' ) ;
#205 = PERSON_AND_ORGANIZATION ( #186, #108 ) ;
#206 = FACE_OUTER_BOUND ( 'NONE', #320, .T. ) ;
#207 = APPLICATION_PROTOCOL_DEFINITION ( 'international standard', 'config_control_design', 1994, #210 ) ;
#208 = EDGE_CURVE ( 'NONE', #295, #36, #191, .T. ) ;
#209 = FACE_OUTER_BOUND ( 'NONE', #9, .T. ) ;
#210 = APPLICATION_CONTEXT ( 'configuration controlled 3d designs of mechanical parts and assemblies' ) ;
#211 = DATE_TIME_ROLE ( 'classification_date' ) ;
#212 = DIRECTION ( 'NONE',  ( 0.0000000000000000000, 1.000000000000000000, 0.0000000000000000000 ) ) ;
#213 = CONICAL_SURFACE ( 'NONE', #143, 3.649999999999986144, 1.029744258676649649 ) ;
#214 = ORIENTED_EDGE ( 'NONE', *, *, #49, .T. ) ;
#215 = CARTESIAN_POINT ( 'NONE',  ( 7.657311780818732161E-15, -3.649999999999986589, 2.193141259450610114 ) ) ;
#216 = ORIENTED_EDGE ( 'NONE', *, *, #39, .F. ) ;
#217 = DIRECTION ( 'NONE',  ( -2.468850131082257455E-15, 0.7071067811865497932, -0.7071067811865453523 ) ) ;
#218 = CIRCLE ( 'NONE', #32, 3.649999999999995026 ) ;
#219 = DIRECTION ( 'NONE',  ( -3.491481338843133355E-15, 1.224646799147353207E-16, -1.000000000000000000 ) ) ;
#220 = LOCAL_TIME ( 9, 22, 41.00000000000000000, #274 ) ;
#221 = DIRECTION ( 'NONE',  ( 0.0000000000000000000, 1.000000000000000000, 0.0000000000000000000 ) ) ;
#222 = DIRECTION ( 'NONE',  ( 4.275831445896958607E-31, 1.000000000000000000, 1.224646799147353207E-16 ) ) ;
#223 = DIRECTION ( 'NONE',  ( -4.221216316465190249E-31, -1.000000000000000000, -1.188166764367680533E-16 ) ) ;
#224 = ORIENTED_EDGE ( 'NONE', *, *, #157, .T. ) ;
#225 = CIRCLE ( 'NONE', #298, 3.649999999999988809 ) ;
#226 = SECURITY_CLASSIFICATION ( '', '', #187 ) ;
#227 = DIRECTION ( 'NONE',  ( -3.491481338843133355E-15, 1.224646799147353207E-16, -1.000000000000000000 ) ) ;
#228 = DATE_AND_TIME ( #280, #130 ) ;
#229 = PERSON_AND_ORGANIZATION_ROLE ( 'creator' ) ;
#230 = CLOSED_SHELL ( 'NONE', ( #118, #325, #284, #123, #142, #315 ) ) ;
#231 = CC_DESIGN_SECURITY_CLASSIFICATION ( #226, ( #271 ) ) ;
#232 = COORDINATED_UNIVERSAL_TIME_OFFSET ( 1, 0, .AHEAD. ) ;
#233 = FACE_OUTER_BOUND ( 'NONE', #324, .T. ) ;
#234 = CALENDAR_DATE ( 2021, 3, 9 ) ;
#235 = DIRECTION ( 'NONE',  ( 0.0000000000000000000, 1.000000000000000000, 0.0000000000000000000 ) ) ;
#236 = PERSON_AND_ORGANIZATION ( #186, #108 ) ;
#237 = CARTESIAN_POINT ( 'NONE',  ( 2.583696190743918430E-13, -9.062386313690413585E-15, 74.00000000000000000 ) ) ;
#238 = AXIS2_PLACEMENT_3D ( 'NONE', #119, #323, #66 ) ;
#239 = DIRECTION ( 'NONE',  ( -3.491481338843133355E-15, 1.224646799147353207E-16, -1.000000000000000000 ) ) ;
#240 = CC_DESIGN_PERSON_AND_ORGANIZATION_ASSIGNMENT ( #236, #305, ( #226 ) ) ;
#241 = VECTOR ( 'NONE', #54, 1000.000000000000000 ) ;
#242 = LOCAL_TIME ( 9, 22, 41.00000000000000000, #1 ) ;
#243 = CC_DESIGN_DATE_AND_TIME_ASSIGNMENT ( #228, #253, ( #259 ) ) ;
#244 = CARTESIAN_POINT ( 'NONE',  ( 0.0000000000000000000, 0.0000000000000000000, 0.0000000000000000000 ) ) ;
#245 = APPROVAL ( #96, 'UNSPECIFIED' ) ;
#246 = EDGE_CURVE ( 'NONE', #115, #120, #48, .T. ) ;
#247 = PRODUCT_RELATED_PRODUCT_CATEGORY ( 'detail', '', ( #308 ) ) ;
#248 = DIRECTION ( 'NONE',  ( 1.903218546456022717E-15, 0.8571673007021097801, 0.5150380749100585964 ) ) ;
#249 = ORIENTED_EDGE ( 'NONE', *, *, #157, .F. ) ;
#250 = FACE_OUTER_BOUND ( 'NONE', #264, .T. ) ;
#251 = PERSON_AND_ORGANIZATION ( #186, #108 ) ;
#252 = PERSON_AND_ORGANIZATION ( #186, #108 ) ;
#253 = DATE_TIME_ROLE ( 'creation_date' ) ;
#254 = LINE ( 'NONE', #78, #178 ) ;
#255 = DATE_AND_TIME ( #276, #26 ) ;
#256 = FACE_OUTER_BOUND ( 'NONE', #73, .T. ) ;
#257 = CARTESIAN_POINT ( 'NONE',  ( 2.583696190743918430E-13, 2.849999999999985878, 74.00000000000000000 ) ) ;
#258 = CIRCLE ( 'NONE', #238, 3.649999999999986144 ) ;
#259 = PRODUCT_DEFINITION ( 'UNKNOWN', '', #271, #331 ) ;
#260 = ORIENTED_EDGE ( 'NONE', *, *, #330, .F. ) ;
#261 = ADVANCED_FACE ( 'NONE', ( #328 ), #267, .T. ) ;
#262 = DIRECTION ( 'NONE',  ( -2.382254525458708792E-15, -0.7071067811865495711, -0.7071067811865455743 ) ) ;
#263 = CARTESIAN_POINT ( 'NONE',  ( 1.560678477752384488E-30, 3.649999999999987477, 4.469960816887823639E-16 ) ) ;
#264 = EDGE_LOOP ( 'NONE', ( #326, #17, #302 ) ) ;
#265 = VECTOR ( 'NONE', #312, 1000.000000000000000 ) ;
#266 = CYLINDRICAL_SURFACE ( 'NONE', #159, 3.649999999999991918 ) ;
#267 = CYLINDRICAL_SURFACE ( 'NONE', #43, 3.649999999999987477 ) ;
#268 = EDGE_LOOP ( 'NONE', ( #22, #134, #55 ) ) ;
#269 = DIRECTION ( 'NONE',  ( 3.491481338843133355E-15, -1.224646799147353207E-16, 1.000000000000000000 ) ) ;
#270 = AXIS2_PLACEMENT_3D ( 'NONE', #16, #303, #174 ) ;
#271 = PRODUCT_DEFINITION_FORMATION_WITH_SPECIFIED_SOURCE ( 'ANY', '', #308, .NOT_KNOWN. ) ;
#272 = MANIFOLD_SOLID_BREP ( 'Corps-Déplacer/Copier1[1]', #230 ) ;
#273 = ORIENTED_EDGE ( 'NONE', *, *, #199, .T. ) ;
#274 = COORDINATED_UNIVERSAL_TIME_OFFSET ( 1, 0, .AHEAD. ) ;
#275 = EDGE_LOOP ( 'NONE', ( #141, #279 ) ) ;
#276 = CALENDAR_DATE ( 2021, 3, 9 ) ;
#277 = AXIS2_PLACEMENT_3D ( 'NONE', #21, #176, #221 ) ;
#278 = CYLINDRICAL_SURFACE ( 'NONE', #182, 3.649999999999987477 ) ;
#279 = ORIENTED_EDGE ( 'NONE', *, *, #199, .F. ) ;
#280 = CALENDAR_DATE ( 2021, 3, 9 ) ;
#281 = DIRECTION ( 'NONE',  ( -3.491481338843133355E-15, 1.224646799147353207E-16, -1.000000000000000000 ) ) ;
#282 = VERTEX_POINT ( 'NONE', #90 ) ;
#283 = FACE_OUTER_BOUND ( 'NONE', #268, .T. ) ;
#284 = ADVANCED_FACE ( 'NONE', ( #197 ), #46, .F. ) ;
#285 = AXIS2_PLACEMENT_3D ( 'NONE', #299, #269, #196 ) ;
#286 = EDGE_CURVE ( 'NONE', #79, #120, #301, .T. ) ;
#287 = CARTESIAN_POINT ( 'NONE',  ( 1.718787298188865831E-13, -3.649999999999991918, 25.00000000000000000 ) ) ;
#288 = AXIS2_PLACEMENT_3D ( 'NONE', #139, #40, #18 ) ;
#289 = CC_DESIGN_APPROVAL ( #3, ( #259 ) ) ;
#290 = DIRECTION ( 'NONE',  ( 0.0000000000000000000, 1.000000000000000000, 0.0000000000000000000 ) ) ;
#291 = ORIENTED_EDGE ( 'NONE', *, *, #330, .T. ) ;
#292 = LINE ( 'NONE', #145, #102 ) ;
#293 = APPLICATION_CONTEXT ( 'configuration controlled 3d designs of mechanical parts and assemblies' ) ;
#294 = CC_DESIGN_PERSON_AND_ORGANIZATION_ASSIGNMENT ( #27, #128, ( #271 ) ) ;
#295 = VERTEX_POINT ( 'NONE', #87 ) ;
#296 = DIRECTION ( 'NONE',  ( 4.221216316465190249E-31, 1.000000000000000000, 1.188166764367680533E-16 ) ) ;
#297 = ORIENTED_EDGE ( 'NONE', *, *, #175, .T. ) ;
#298 = AXIS2_PLACEMENT_3D ( 'NONE', #181, #112, #212 ) ;
#299 = CARTESIAN_POINT ( 'NONE',  ( 8.728703347107833388E-14, 2.737061603357877271E-32, 25.00000000000000000 ) ) ;
#300 = UNCERTAINTY_MEASURE_WITH_UNIT (LENGTH_MEASURE( 1.000000000000000082E-05 ), #140, 'distance_accuracy_value', 'NONE');
#301 = LINE ( 'NONE', #44, #148 ) ;
#302 = ORIENTED_EDGE ( 'NONE', *, *, #203, .T. ) ;
#303 = DIRECTION ( 'NONE',  ( -3.491481338843133355E-15, 1.224646799147353207E-16, -1.000000000000000000 ) ) ;
#304 = ADVANCED_BREP_SHAPE_REPRESENTATION ( '53054', ( #272, #165, #33 ), #311 ) ;
#305 = PERSON_AND_ORGANIZATION_ROLE ( 'classification_officer' ) ;
#306 = ADVANCED_FACE ( 'NONE', ( #250 ), #213, .T. ) ;
#307 = COORDINATED_UNIVERSAL_TIME_OFFSET ( 1, 0, .AHEAD. ) ;
#308 = PRODUCT ( '53054', '53054', '', ( #95 ) ) ;
#309 = PERSON_AND_ORGANIZATION ( #186, #108 ) ;
#310 = DIRECTION ( 'NONE',  ( -3.491481338843133355E-15, 1.224646799147353207E-16, -1.000000000000000000 ) ) ;
#311 =( GEOMETRIC_REPRESENTATION_CONTEXT ( 3 ) GLOBAL_UNCERTAINTY_ASSIGNED_CONTEXT ( ( #300 ) ) GLOBAL_UNIT_ASSIGNED_CONTEXT ( ( #140, #167, #41 ) ) REPRESENTATION_CONTEXT ( 'NONE', 'WORKASPACE' ) );
#312 = DIRECTION ( 'NONE',  ( -3.491481338843133355E-15, 1.224646799147353207E-16, -1.000000000000000000 ) ) ;
#313 = PERSON_AND_ORGANIZATION ( #186, #108 ) ;
#314 = CYLINDRICAL_SURFACE ( 'NONE', #147, 3.649999999999991918 ) ;
#315 = ADVANCED_FACE ( 'NONE', ( #67 ), #170, .F. ) ;
#316 = ORIENTED_EDGE ( 'NONE', *, *, #49, .F. ) ;
#317 = ORIENTED_EDGE ( 'NONE', *, *, #131, .T. ) ;
#318 = CIRCLE ( 'NONE', #171, 2.849999999999994760 ) ;
#319 = EDGE_CURVE ( 'NONE', #79, #115, #292, .T. ) ;
#320 = EDGE_LOOP ( 'NONE', ( #291, #109, #194, #60 ) ) ;
#321 = CARTESIAN_POINT ( 'NONE',  ( 2.583696190743918430E-13, -9.062386313690413585E-15, 74.00000000000000000 ) ) ;
#322 = LINE ( 'NONE', #28, #265 ) ;
#323 = DIRECTION ( 'NONE',  ( -3.491481338843133355E-15, 1.224646799147353207E-16, -1.000000000000000000 ) ) ;
#324 = EDGE_LOOP ( 'NONE', ( #316, #77, #11, #70 ) ) ;
#325 = ADVANCED_FACE ( 'NONE', ( #65 ), #266, .T. ) ;
#326 = ORIENTED_EDGE ( 'NONE', *, *, #319, .F. ) ;
#327 = CARTESIAN_POINT ( 'NONE',  ( 7.657311780818733739E-15, -2.685823423464185342E-16, 2.193141259450610558 ) ) ;
#328 = FACE_OUTER_BOUND ( 'NONE', #161, .T. ) ;
#329 = DIRECTION ( 'NONE',  ( 4.275831445896958607E-31, 1.000000000000000000, 1.224646799147352961E-16 ) ) ;
#330 = EDGE_CURVE ( 'NONE', #36, #295, #152, .T. ) ;
#331 = DESIGN_CONTEXT ( 'detailed design', #293, 'design' ) ;
#332 = ORIENTED_EDGE ( 'NONE', *, *, #23, .F. ) ;
#333 = PERSON_AND_ORGANIZATION ( #186, #108 ) ;
#334 = DATE_AND_TIME ( #335, #179 ) ;
#335 = CALENDAR_DATE ( 2021, 3, 9 ) ;
#336 = CARTESIAN_POINT ( 'NONE',  ( 2.555764340033173364E-13, 3.649999999999985700, 73.20000000000000284 ) ) ;
#337 = CARTESIAN_POINT ( 'NONE',  ( 0.0000000000000000000, 0.0000000000000000000, 0.0000000000000000000 ) ) ;
ENDSEC;
END-ISO-10303-21;
