ISO-10303-21;
HEADER;
FILE_DESCRIPTION (( 'STEP AP203' ),
    '1' );
FILE_NAME ('52628.step',
    '2021-11-01T09:16:38',
    ( '' ),
    ( '' ),
    'SwSTEP 2.0',
    'SolidWorks 2019',
    '' );
FILE_SCHEMA (( 'CONFIG_CONTROL_DESIGN' ));
ENDSEC;

DATA;
#1 = ADVANCED_FACE ( 'NONE', ( #94, #106 ), #7, .T. ) ;
#2 = EDGE_LOOP ( 'NONE', ( #22 ) ) ;
#3 = AXIS2_PLACEMENT_3D ( 'NONE', #102, #43, #103 ) ;
#4 = PERSON_AND_ORGANIZATION ( #77, #170 ) ;
#5 = FACE_OUTER_BOUND ( 'NONE', #2, .T. ) ;
#6 = PERSON_AND_ORGANIZATION_ROLE ( 'classification_officer' ) ;
#7 = CYLINDRICAL_SURFACE ( 'NONE', #227, 1.499999999999991340 ) ;
#8 = COORDINATED_UNIVERSAL_TIME_OFFSET ( 1, 0, .AHEAD. ) ;
#9 = LOCAL_TIME ( 10, 16, 38.00000000000000000, #132 ) ;
#10 = CIRCLE ( 'NONE', #152, 0.07500000000000002498 ) ;
#11 = FACE_OUTER_BOUND ( 'NONE', #175, .T. ) ;
#12 = DIRECTION ( 'NONE',  ( -3.491481338843133355E-15, 1.224646799147353207E-16, -1.000000000000000000 ) ) ;
#13 = CYLINDRICAL_SURFACE ( 'NONE', #205, 0.07500000000000001110 ) ;
#14 = AXIS2_PLACEMENT_3D ( 'NONE', #201, #62, #166 ) ;
#15 = DIRECTION ( 'NONE',  ( 3.491481338843133355E-15, -1.219242935835426903E-16, 1.000000000000000000 ) ) ;
#16 = EDGE_CURVE ( 'NONE', #82, #82, #79, .T. ) ;
#17 =( NAMED_UNIT ( * ) PLANE_ANGLE_UNIT ( ) SI_UNIT ( $, .RADIAN. ) );
#18 = CC_DESIGN_PERSON_AND_ORGANIZATION_ASSIGNMENT ( #4, #42, ( #131 ) ) ;
#19 = ORIENTED_EDGE ( 'NONE', *, *, #210, .T. ) ;
#20 = DESIGN_CONTEXT ( 'detailed design', #93, 'design' ) ;
#21 = MANIFOLD_SOLID_BREP ( 'Corps-Déplacer/Copier1[1]', #184 ) ;
#22 = ORIENTED_EDGE ( 'NONE', *, *, #221, .F. ) ;
#23 = MANIFOLD_SOLID_BREP ( 'Corps-Déplacer/Copier1[2]', #112 ) ;
#24 = EDGE_LOOP ( 'NONE', ( #60 ) ) ;
#25 = DATE_AND_TIME ( #45, #135 ) ;
#26 = DATE_AND_TIME ( #29, #9 ) ;
#27 = PLANE ( 'NONE',  #3 ) ;
#28 = DIRECTION ( 'NONE',  ( 3.491481338843133355E-15, -1.224646799147353207E-16, 1.000000000000000000 ) ) ;
#29 = CALENDAR_DATE ( 2021, 1, 11 ) ;
#30 = DIRECTION ( 'NONE',  ( 0.0000000000000000000, -1.000000000000000000, 0.0000000000000000000 ) ) ;
#31 = PRODUCT_DEFINITION_SHAPE ( 'NONE', 'NONE',  #34 ) ;
#32 = SHAPE_DEFINITION_REPRESENTATION ( #31, #136 ) ;
#33 = DIRECTION ( 'NONE',  ( -3.491481338843133355E-15, 1.224646799147353207E-16, -1.000000000000000000 ) ) ;
#34 = PRODUCT_DEFINITION ( 'UNKNOWN', '', #131, #20 ) ;
#35 = CC_DESIGN_APPROVAL ( #154, ( #34 ) ) ;
#36 = CARTESIAN_POINT ( 'NONE',  ( 0.0000000000000000000, 0.0000000000000000000, 0.0000000000000000000 ) ) ;
#37 =( LENGTH_UNIT ( ) NAMED_UNIT ( * ) SI_UNIT ( .MILLI., .METRE. ) );
#38 = CARTESIAN_POINT ( 'NONE',  ( -3.270738986954334128E-30, -0.07499999999999998335, -9.367768776441633238E-16 ) ) ;
#39 = DIRECTION ( 'NONE',  ( 1.000000000000000000, 0.0000000000000000000, 0.0000000000000000000 ) ) ;
#40 = EDGE_LOOP ( 'NONE', ( #208 ) ) ;
#41 = UNCERTAINTY_MEASURE_WITH_UNIT (LENGTH_MEASURE( 1.000000000000000082E-05 ), #37, 'distance_accuracy_value', 'NONE');
#42 = PERSON_AND_ORGANIZATION_ROLE ( 'design_supplier' ) ;
#43 = DIRECTION ( 'NONE',  ( -3.491481338843133355E-15, 1.224646799147353207E-16, -1.000000000000000000 ) ) ;
#44 = FACE_OUTER_BOUND ( 'NONE', #81, .T. ) ;
#45 = CALENDAR_DATE ( 2021, 1, 11 ) ;
#46 = DIRECTION ( 'NONE',  ( 0.0000000000000000000, 1.000000000000000000, 0.0000000000000000000 ) ) ;
#47 = PERSON_AND_ORGANIZATION ( #77, #170 ) ;
#48 = DIRECTION ( 'NONE',  ( -4.256963957985741294E-31, -1.000000000000000000, -1.219242935835426903E-16 ) ) ;
#49 = AXIS2_PLACEMENT_3D ( 'NONE', #104, #70, #196 ) ;
#50 = COORDINATED_UNIVERSAL_TIME_OFFSET ( 1, 0, .AHEAD. ) ;
#51 = DIRECTION ( 'NONE',  ( -4.256963957985708889E-31, -1.000000000000000000, -1.219242935835426656E-16 ) ) ;
#52 = AXIS2_PLACEMENT_3D ( 'NONE', #144, #123, #125 ) ;
#53 = AXIS2_PLACEMENT_3D ( 'NONE', #130, #90, #235 ) ;
#54 = CIRCLE ( 'NONE', #49, 0.1431483474218601115 ) ;
#55 = CC_DESIGN_DATE_AND_TIME_ASSIGNMENT ( #231, #218, ( #209 ) ) ;
#56 = VERTEX_POINT ( 'NONE', #97 ) ;
#57 = ORIENTED_EDGE ( 'NONE', *, *, #16, .T. ) ;
#58 = AXIS2_PLACEMENT_3D ( 'NONE', #68, #89, #46 ) ;
#59 = CARTESIAN_POINT ( 'NONE',  ( 1.047444401652939612E-15, -0.07500000000000006661, 0.2999999999999999334 ) ) ;
#60 = ORIENTED_EDGE ( 'NONE', *, *, #169, .T. ) ;
#61 = EDGE_LOOP ( 'NONE', ( #232 ) ) ;
#62 = DIRECTION ( 'NONE',  ( 3.491481338843133355E-15, -1.224646799147353207E-16, 1.000000000000000000 ) ) ;
#63 = EDGE_CURVE ( 'NONE', #229, #229, #10, .T. ) ;
#64 = APPROVAL_PERSON_ORGANIZATION ( #163, #177, #192 ) ;
#65 = DATE_AND_TIME ( #212, #69 ) ;
#66 = PERSON_AND_ORGANIZATION ( #77, #170 ) ;
#67 = PLANE ( 'NONE',  #14 ) ;
#68 = CARTESIAN_POINT ( 'NONE',  ( 1.326762908760390423E-13, -4.653657836759941941E-15, 38.00000000000000000 ) ) ;
#69 = LOCAL_TIME ( 10, 16, 38.00000000000000000, #234 ) ;
#70 = DIRECTION ( 'NONE',  ( 3.491481338843133355E-15, -1.219242935835426903E-16, 1.000000000000000000 ) ) ;
#71 = PRODUCT_RELATED_PRODUCT_CATEGORY ( 'detail', '', ( #121 ) ) ;
#72 = CIRCLE ( 'NONE', #204, 0.07499999999999998335 ) ;
#73 = ADVANCED_FACE ( 'NONE', ( #160, #164 ), #13, .T. ) ;
#74 = TOROIDAL_SURFACE ( 'NONE', #52, 2.075000000000000178, 2.000000000000000000 ) ;
#75 = ORIENTED_EDGE ( 'NONE', *, *, #153, .T. ) ;
#76 = VERTEX_POINT ( 'NONE', #155 ) ;
#77 = PERSON ( 'UNSPECIFIED', 'UNSPECIFIED', 'UNSPECIFIED', ('UNSPECIFIED'), ('UNSPECIFIED'), ('UNSPECIFIED') ) ;
#78 = CC_DESIGN_APPROVAL ( #177, ( #209 ) ) ;
#79 = CIRCLE ( 'NONE', #53, 0.07500000000000002498 ) ;
#80 = APPLICATION_PROTOCOL_DEFINITION ( 'international standard', 'config_control_design', 1994, #93 ) ;
#81 = EDGE_LOOP ( 'NONE', ( #228 ) ) ;
#82 = VERTEX_POINT ( 'NONE', #59 ) ;
#83 = APPROVAL_DATE_TIME ( #108, #154 ) ;
#84 = CARTESIAN_POINT ( 'NONE',  ( 1.047444401652939612E-15, -3.657728807506279599E-17, 0.2999999999999999334 ) ) ;
#85 = CARTESIAN_POINT ( 'NONE',  ( 1.047444401652939218E-15, 1.124819836996385132E-32, 0.2999999999999998224 ) ) ;
#86 = AXIS2_PLACEMENT_3D ( 'NONE', #178, #179, #203 ) ;
#87 = DIRECTION ( 'NONE',  ( -3.491481338843133355E-15, 1.219242935835426903E-16, -1.000000000000000000 ) ) ;
#88 = DATE_TIME_ROLE ( 'creation_date' ) ;
#89 = DIRECTION ( 'NONE',  ( -3.491481338843133355E-15, 1.224646799147353207E-16, -1.000000000000000000 ) ) ;
#90 = DIRECTION ( 'NONE',  ( 3.491481338843133355E-15, -1.219242935835426903E-16, 1.000000000000000000 ) ) ;
#91 =( NAMED_UNIT ( * ) SI_UNIT ( $, .STERADIAN. ) SOLID_ANGLE_UNIT ( ) );
#92 = APPROVAL_PERSON_ORGANIZATION ( #124, #101, #216 ) ;
#93 = APPLICATION_CONTEXT ( 'configuration controlled 3d designs of mechanical parts and assemblies' ) ;
#94 = FACE_OUTER_BOUND ( 'NONE', #24, .T. ) ;
#95 = PERSON_AND_ORGANIZATION_ROLE ( 'design_owner' ) ;
#96 = EDGE_LOOP ( 'NONE', ( #172 ) ) ;
#97 = CARTESIAN_POINT ( 'NONE',  ( 2.854768133878195599E-15, -0.1431483474218602225, 0.8176380902050285338 ) ) ;
#98 = APPLICATION_CONTEXT ( 'configuration controlled 3d designs of mechanical parts and assemblies' ) ;
#99 = AXIS2_PLACEMENT_3D ( 'NONE', #85, #28, #133 ) ;
#100 = EDGE_LOOP ( 'NONE', ( #19 ) ) ;
#101 = APPROVAL ( #145, 'UNSPECIFIED' ) ;
#102 = CARTESIAN_POINT ( 'NONE',  ( 1.326762908760390423E-13, 8.998558695971030697E-33, 38.00000000000000000 ) ) ;
#103 = DIRECTION ( 'NONE',  ( 4.275831445896958607E-31, 1.000000000000000000, 1.224646799147353207E-16 ) ) ;
#104 = CARTESIAN_POINT ( 'NONE',  ( 2.854768133878195599E-15, -9.968994655524506421E-17, 0.8176380902050285338 ) ) ;
#105 = COORDINATED_UNIVERSAL_TIME_OFFSET ( 1, 0, .AHEAD. ) ;
#106 = FACE_OUTER_BOUND ( 'NONE', #61, .T. ) ;
#107 = ADVANCED_FACE ( 'NONE', ( #219, #233 ), #157, .T. ) ;
#108 = DATE_AND_TIME ( #214, #174 ) ;
#109 = DIRECTION ( 'NONE',  ( 3.491481338843133355E-15, -1.224646799147353207E-16, 1.000000000000000000 ) ) ;
#110 = APPROVAL_PERSON_ORGANIZATION ( #141, #154, #202 ) ;
#111 = CC_DESIGN_PERSON_AND_ORGANIZATION_ASSIGNMENT ( #220, #140, ( #131 ) ) ;
#112 = CLOSED_SHELL ( 'NONE', ( #134, #73, #115 ) ) ;
#113 = CIRCLE ( 'NONE', #86, 1.199999999999993738 ) ;
#114 = PERSON_AND_ORGANIZATION ( #77, #170 ) ;
#115 = ADVANCED_FACE ( 'NONE', ( #5 ), #67, .F. ) ;
#116 = AXIS2_PLACEMENT_3D ( 'NONE', #168, #15, #189 ) ;
#117 = EDGE_LOOP ( 'NONE', ( #173 ) ) ;
#118 = EDGE_LOOP ( 'NONE', ( #137 ) ) ;
#119 = CARTESIAN_POINT ( 'NONE',  ( 1.047444401652939612E-15, -0.07500000000000006661, 0.2999999999999999334 ) ) ;
#120 = ADVANCED_FACE ( 'NONE', ( #223 ), #27, .F. ) ;
#121 = PRODUCT ( '52628', '52628', '', ( #206 ) ) ;
#122 = CC_DESIGN_SECURITY_CLASSIFICATION ( #209, ( #131 ) ) ;
#123 = DIRECTION ( 'NONE',  ( 3.491481338843133355E-15, -1.219242935835426903E-16, 1.000000000000000000 ) ) ;
#124 = PERSON_AND_ORGANIZATION ( #77, #170 ) ;
#125 = DIRECTION ( 'NONE',  ( -4.330276120448695765E-31, -1.000000000000000000, -1.219242935835426903E-16 ) ) ;
#126 = PERSON_AND_ORGANIZATION_ROLE ( 'creator' ) ;
#127 = CARTESIAN_POINT ( 'NONE',  ( 0.0000000000000000000, 0.0000000000000000000, 0.0000000000000000000 ) ) ;
#128 = VERTEX_POINT ( 'NONE', #38 ) ;
#129 = CC_DESIGN_PERSON_AND_ORGANIZATION_ASSIGNMENT ( #114, #95, ( #121 ) ) ;
#130 = CARTESIAN_POINT ( 'NONE',  ( 1.047444401652939612E-15, -3.657728807506279599E-17, 0.2999999999999999334 ) ) ;
#131 = PRODUCT_DEFINITION_FORMATION_WITH_SPECIFIED_SOURCE ( 'ANY', '', #121, .NOT_KNOWN. ) ;
#132 = COORDINATED_UNIVERSAL_TIME_OFFSET ( 1, 0, .AHEAD. ) ;
#133 = DIRECTION ( 'NONE',  ( -4.275831445896958607E-31, -1.000000000000000000, -1.224646799147353207E-16 ) ) ;
#134 = ADVANCED_FACE ( 'NONE', ( #240 ), #142, .T. ) ;
#135 = LOCAL_TIME ( 10, 16, 38.00000000000000000, #8 ) ;
#136 = ADVANCED_BREP_SHAPE_REPRESENTATION ( '52628', ( #21, #23, #226 ), #148 ) ;
#137 = ORIENTED_EDGE ( 'NONE', *, *, #162, .T. ) ;
#138 = EDGE_LOOP ( 'NONE', ( #243 ) ) ;
#139 = ADVANCED_FACE ( 'NONE', ( #147 ), #194, .F. ) ;
#140 = PERSON_AND_ORGANIZATION_ROLE ( 'creator' ) ;
#141 = PERSON_AND_ORGANIZATION ( #77, #170 ) ;
#142 = PLANE ( 'NONE',  #222 ) ;
#143 = APPROVAL_DATE_TIME ( #25, #101 ) ;
#144 = CARTESIAN_POINT ( 'NONE',  ( 1.047444401652938823E-15, 0.0000000000000000000, 0.2999999999999996558 ) ) ;
#145 = APPROVAL_STATUS ( 'not_yet_approved' ) ;
#146 = DIRECTION ( 'NONE',  ( 3.491481338843133355E-15, -1.219242935835426903E-16, 1.000000000000000000 ) ) ;
#147 = FACE_OUTER_BOUND ( 'NONE', #117, .T. ) ;
#148 =( GEOMETRIC_REPRESENTATION_CONTEXT ( 3 ) GLOBAL_UNCERTAINTY_ASSIGNED_CONTEXT ( ( #41 ) ) GLOBAL_UNIT_ASSIGNED_CONTEXT ( ( #37, #17, #91 ) ) REPRESENTATION_CONTEXT ( 'NONE', 'WORKASPACE' ) );
#149 = CC_DESIGN_DATE_AND_TIME_ASSIGNMENT ( #65, #88, ( #34 ) ) ;
#150 = DIRECTION ( 'NONE',  ( 0.0000000000000000000, -1.000000000000000000, 0.0000000000000000000 ) ) ;
#151 = CIRCLE ( 'NONE', #193, 1.499999999999993783 ) ;
#152 = AXIS2_PLACEMENT_3D ( 'NONE', #84, #180, #30 ) ;
#153 = EDGE_CURVE ( 'NONE', #56, #56, #54, .T. ) ;
#154 = APPROVAL ( #158, 'UNSPECIFIED' ) ;
#155 = CARTESIAN_POINT ( 'NONE',  ( 2.053506857282392924E-14, -1.499999999999992006, 5.881477395960540200 ) ) ;
#156 = EDGE_LOOP ( 'NONE', ( #75 ) ) ;
#157 = CONICAL_SURFACE ( 'NONE', #58, 1.199999999999993738, 0.7853981633974453924 ) ;
#158 = APPROVAL_STATUS ( 'not_yet_approved' ) ;
#159 = VERTEX_POINT ( 'NONE', #191 ) ;
#160 = FACE_OUTER_BOUND ( 'NONE', #190, .T. ) ;
#161 = DIRECTION ( 'NONE',  ( 0.0000000000000000000, 1.000000000000000000, 0.0000000000000000000 ) ) ;
#162 = EDGE_CURVE ( 'NONE', #159, #159, #113, .T. ) ;
#163 = PERSON_AND_ORGANIZATION ( #77, #170 ) ;
#164 = FACE_OUTER_BOUND ( 'NONE', #138, .T. ) ;
#165 = CARTESIAN_POINT ( 'NONE',  ( 0.0000000000000000000, 0.0000000000000000000, 0.0000000000000000000 ) ) ;
#166 = DIRECTION ( 'NONE',  ( -4.275831445896958607E-31, -1.000000000000000000, -1.224646799147353207E-16 ) ) ;
#167 = FACE_BOUND ( 'NONE', #156, .T. ) ;
#168 = CARTESIAN_POINT ( 'NONE',  ( 3.356545432306546335E-14, -1.172122635060800589E-15, 9.613528203529517313 ) ) ;
#169 = EDGE_CURVE ( 'NONE', #211, #211, #151, .T. ) ;
#170 = ORGANIZATION ( 'UNSPECIFIED', 'UNSPECIFIED', '' ) ;
#171 = CIRCLE ( 'NONE', #239, 1.499999999999991340 ) ;
#172 = ORIENTED_EDGE ( 'NONE', *, *, #162, .F. ) ;
#173 = ORIENTED_EDGE ( 'NONE', *, *, #63, .F. ) ;
#174 = LOCAL_TIME ( 10, 16, 38.00000000000000000, #50 ) ;
#175 = EDGE_LOOP ( 'NONE', ( #187 ) ) ;
#176 = DIRECTION ( 'NONE',  ( 3.491481338843133355E-15, -1.219242935835426903E-16, 1.000000000000000000 ) ) ;
#177 = APPROVAL ( #236, 'UNSPECIFIED' ) ;
#178 = CARTESIAN_POINT ( 'NONE',  ( 1.326762908760390423E-13, -4.653657836759941941E-15, 38.00000000000000000 ) ) ;
#179 = DIRECTION ( 'NONE',  ( -3.491481338843133355E-15, 1.224646799147353207E-16, -1.000000000000000000 ) ) ;
#180 = DIRECTION ( 'NONE',  ( 3.491481338843133355E-15, -1.219242935835426903E-16, 1.000000000000000000 ) ) ;
#181 = ADVANCED_FACE ( 'NONE', ( #44, #11 ), #74, .F. ) ;
#182 = DIRECTION ( 'NONE',  ( 4.275831445896958607E-31, 1.000000000000000000, 1.224646799147353207E-16 ) ) ;
#183 = CONICAL_SURFACE ( 'NONE', #116, 2.499999999999992895, 0.2617993877991430240 ) ;
#184 = CLOSED_SHELL ( 'NONE', ( #1, #107, #120, #241, #181, #139 ) ) ;
#185 = DIRECTION ( 'NONE',  ( 0.0000000000000000000, 0.0000000000000000000, 1.000000000000000000 ) ) ;
#186 = CC_DESIGN_PERSON_AND_ORGANIZATION_ASSIGNMENT ( #47, #126, ( #34 ) ) ;
#187 = ORIENTED_EDGE ( 'NONE', *, *, #153, .F. ) ;
#188 = EDGE_LOOP ( 'NONE', ( #57 ) ) ;
#189 = DIRECTION ( 'NONE',  ( 0.0000000000000000000, -1.000000000000000000, 0.0000000000000000000 ) ) ;
#190 = EDGE_LOOP ( 'NONE', ( #207 ) ) ;
#191 = CARTESIAN_POINT ( 'NONE',  ( 1.326762908760390423E-13, 1.199999999999989297, 38.00000000000000000 ) ) ;
#192 = APPROVAL_ROLE ( '' ) ;
#193 = AXIS2_PLACEMENT_3D ( 'NONE', #215, #33, #161 ) ;
#194 = PLANE ( 'NONE',  #99 ) ;
#195 = SECURITY_CLASSIFICATION_LEVEL ( 'unclassified' ) ;
#196 = DIRECTION ( 'NONE',  ( 0.0000000000000000000, -1.000000000000000000, 0.0000000000000000000 ) ) ;
#197 = APPROVAL_DATE_TIME ( #26, #177 ) ;
#198 = CARTESIAN_POINT ( 'NONE',  ( 1.047444401652939218E-15, 1.124819836996385132E-32, 0.2999999999999998224 ) ) ;
#199 = CALENDAR_DATE ( 2021, 1, 11 ) ;
#200 = LOCAL_TIME ( 10, 16, 38.00000000000000000, #105 ) ;
#201 = CARTESIAN_POINT ( 'NONE',  ( -1.282754905350004587E-30, 4.499298539707956128E-32, -3.673956068672651857E-16 ) ) ;
#202 = APPROVAL_ROLE ( '' ) ;
#203 = DIRECTION ( 'NONE',  ( 0.0000000000000000000, 1.000000000000000000, 0.0000000000000000000 ) ) ;
#204 = AXIS2_PLACEMENT_3D ( 'NONE', #237, #146, #48 ) ;
#205 = AXIS2_PLACEMENT_3D ( 'NONE', #127, #176, #51 ) ;
#206 = MECHANICAL_CONTEXT ( 'NONE', #98, 'mechanical' ) ;
#207 = ORIENTED_EDGE ( 'NONE', *, *, #221, .T. ) ;
#208 = ORIENTED_EDGE ( 'NONE', *, *, #169, .F. ) ;
#209 = SECURITY_CLASSIFICATION ( '', '', #195 ) ;
#210 = EDGE_CURVE ( 'NONE', #76, #76, #171, .T. ) ;
#211 = VERTEX_POINT ( 'NONE', #213 ) ;
#212 = CALENDAR_DATE ( 2021, 1, 11 ) ;
#213 = CARTESIAN_POINT ( 'NONE',  ( 1.316288464743861212E-13, 1.499999999999989120, 37.69999999999999574 ) ) ;
#214 = CALENDAR_DATE ( 2021, 1, 11 ) ;
#215 = CARTESIAN_POINT ( 'NONE',  ( 1.316288464743861212E-13, -4.616918432785521081E-15, 37.69999999999999574 ) ) ;
#216 = APPROVAL_ROLE ( '' ) ;
#217 = CARTESIAN_POINT ( 'NONE',  ( 2.053506857282392924E-14, -7.170949767300629548E-16, 5.881477395960540200 ) ) ;
#218 = DATE_TIME_ROLE ( 'classification_date' ) ;
#219 = FACE_OUTER_BOUND ( 'NONE', #40, .T. ) ;
#220 = PERSON_AND_ORGANIZATION ( #77, #170 ) ;
#221 = EDGE_CURVE ( 'NONE', #128, #128, #72, .T. ) ;
#222 = AXIS2_PLACEMENT_3D ( 'NONE', #198, #109, #238 ) ;
#223 = FACE_OUTER_BOUND ( 'NONE', #96, .T. ) ;
#224 = APPLICATION_PROTOCOL_DEFINITION ( 'international standard', 'config_control_design', 1994, #98 ) ;
#225 = CC_DESIGN_PERSON_AND_ORGANIZATION_ASSIGNMENT ( #66, #6, ( #209 ) ) ;
#226 = AXIS2_PLACEMENT_3D ( 'NONE', #36, #185, #39 ) ;
#227 = AXIS2_PLACEMENT_3D ( 'NONE', #165, #12, #182 ) ;
#228 = ORIENTED_EDGE ( 'NONE', *, *, #63, .T. ) ;
#229 = VERTEX_POINT ( 'NONE', #119 ) ;
#230 = CC_DESIGN_APPROVAL ( #101, ( #131 ) ) ;
#231 = DATE_AND_TIME ( #199, #200 ) ;
#232 = ORIENTED_EDGE ( 'NONE', *, *, #210, .F. ) ;
#233 = FACE_BOUND ( 'NONE', #118, .T. ) ;
#234 = COORDINATED_UNIVERSAL_TIME_OFFSET ( 1, 0, .AHEAD. ) ;
#235 = DIRECTION ( 'NONE',  ( 0.0000000000000000000, -1.000000000000000000, 0.0000000000000000000 ) ) ;
#236 = APPROVAL_STATUS ( 'not_yet_approved' ) ;
#237 = CARTESIAN_POINT ( 'NONE',  ( -3.238811757269440963E-30, 1.131009440497229683E-31, -9.276325556253976664E-16 ) ) ;
#238 = DIRECTION ( 'NONE',  ( -4.275831445896958607E-31, -1.000000000000000000, -1.224646799147353207E-16 ) ) ;
#239 = AXIS2_PLACEMENT_3D ( 'NONE', #217, #87, #150 ) ;
#240 = FACE_OUTER_BOUND ( 'NONE', #188, .T. ) ;
#241 = ADVANCED_FACE ( 'NONE', ( #167, #242 ), #183, .T. ) ;
#242 = FACE_OUTER_BOUND ( 'NONE', #100, .T. ) ;
#243 = ORIENTED_EDGE ( 'NONE', *, *, #16, .F. ) ;
ENDSEC;
END-ISO-10303-21;
