ISO-10303-21;
HEADER;
FILE_DESCRIPTION (( 'STEP AP203' ),
    '1' );
FILE_NAME ('52449.step',
    '2021-10-08T05:54:02',
    ( '' ),
    ( '' ),
    'SwSTEP 2.0',
    'SolidWorks 2019',
    '' );
FILE_SCHEMA (( 'CONFIG_CONTROL_DESIGN' ));
ENDSEC;

DATA;
#1 = DATE_TIME_ROLE ( 'creation_date' ) ;
#2 = PERSON ( 'UNSPECIFIED', 'UNSPECIFIED', 'UNSPECIFIED', ('UNSPECIFIED'), ('UNSPECIFIED'), ('UNSPECIFIED') ) ;
#3 = CC_DESIGN_DATE_AND_TIME_ASSIGNMENT ( #136, #135, ( #205 ) ) ;
#4 = ORIENTED_EDGE ( 'NONE', *, *, #6, .F. ) ;
#5 = AXIS2_PLACEMENT_3D ( 'NONE', #161, #75, #142 ) ;
#6 = EDGE_CURVE ( 'NONE', #199, #199, #77, .T. ) ;
#7 = CC_DESIGN_APPROVAL ( #93, ( #205 ) ) ;
#8 = APPROVAL_STATUS ( 'not_yet_approved' ) ;
#9 = ADVANCED_BREP_SHAPE_REPRESENTATION ( '52449', ( #169, #22, #165 ), #78 ) ;
#10 = DIRECTION ( 'NONE',  ( 3.491481338843133355E-15, -1.224646799147353207E-16, 1.000000000000000000 ) ) ;
#11 = AXIS2_PLACEMENT_3D ( 'NONE', #184, #100, #85 ) ;
#12 = FACE_OUTER_BOUND ( 'NONE', #45, .T. ) ;
#13 = VERTEX_POINT ( 'NONE', #82 ) ;
#14 = FACE_OUTER_BOUND ( 'NONE', #96, .T. ) ;
#15 = AXIS2_PLACEMENT_3D ( 'NONE', #81, #163, #116 ) ;
#16 = CARTESIAN_POINT ( 'NONE',  ( 1.179247499148218996E-15, -4.136243431027173896E-17, 0.3377499074759341413 ) ) ;
#17 = CARTESIAN_POINT ( 'NONE',  ( 3.591263819540289736E-14, 0.7499999999999954481, 10.28578838324886569 ) ) ;
#18 = APPROVAL ( #155, 'UNSPECIFIED' ) ;
#19 = CARTESIAN_POINT ( 'NONE',  ( 1.179247499148219193E-15, 0.5849999999999985212, 0.3377499074759341413 ) ) ;
#20 = AXIS2_PLACEMENT_3D ( 'NONE', #47, #67, #151 ) ;
#21 = CARTESIAN_POINT ( 'NONE',  ( 3.491481338843133355E-14, 0.5849999999999987432, 10.00000000000000000 ) ) ;
#22 = MANIFOLD_SOLID_BREP ( 'Corps-Déplacer/Copier1[2]', #213 ) ;
#23 = CALENDAR_DATE ( 2021, 8, 10 ) ;
#24 = EDGE_CURVE ( 'NONE', #13, #13, #119, .T. ) ;
#25 = AXIS2_PLACEMENT_3D ( 'NONE', #49, #69, #183 ) ;
#26 = ORIENTED_EDGE ( 'NONE', *, *, #103, .F. ) ;
#27 = ORIENTED_EDGE ( 'NONE', *, *, #200, .F. ) ;
#28 = APPLICATION_CONTEXT ( 'configuration controlled 3d designs of mechanical parts and assemblies' ) ;
#29 = CYLINDRICAL_SURFACE ( 'NONE', #154, 0.5849999999999991873 ) ;
#30 = CIRCLE ( 'NONE', #209, 0.7499999999999967804 ) ;
#31 = PLANE ( 'NONE',  #25 ) ;
#32 = PRODUCT ( '52449', '52449', '', ( #91 ) ) ;
#33 = FACE_OUTER_BOUND ( 'NONE', #191, .T. ) ;
#34 = CYLINDRICAL_SURFACE ( 'NONE', #11, 0.7499999999999981126 ) ;
#35 = DIRECTION ( 'NONE',  ( 0.0000000000000000000, 1.000000000000000000, 0.0000000000000000000 ) ) ;
#36 = DATE_AND_TIME ( #189, #203 ) ;
#37 = CIRCLE ( 'NONE', #140, 0.7499999999999992228 ) ;
#38 = APPLICATION_CONTEXT ( 'configuration controlled 3d designs of mechanical parts and assemblies' ) ;
#39 = VERTEX_POINT ( 'NONE', #19 ) ;
#40 = AXIS2_PLACEMENT_3D ( 'NONE', #179, #218, #214 ) ;
#41 = EDGE_LOOP ( 'NONE', ( #125 ) ) ;
#42 = CC_DESIGN_PERSON_AND_ORGANIZATION_ASSIGNMENT ( #54, #104, ( #32 ) ) ;
#43 = EDGE_LOOP ( 'NONE', ( #113 ) ) ;
#44 = PRODUCT_DEFINITION_SHAPE ( 'NONE', 'NONE',  #162 ) ;
#45 = EDGE_LOOP ( 'NONE', ( #143 ) ) ;
#46 = LOCAL_TIME ( 7, 54, 2.000000000000000000, #220 ) ;
#47 = CARTESIAN_POINT ( 'NONE',  ( 3.591263819540289736E-14, -1.259645782025275180E-15, 10.28578838324886569 ) ) ;
#48 = APPROVAL ( #201, 'UNSPECIFIED' ) ;
#49 = CARTESIAN_POINT ( 'NONE',  ( 3.491481338843133355E-14, 4.386797364285915576E-33, 10.00000000000000000 ) ) ;
#50 = CONICAL_SURFACE ( 'NONE', #172, 0.5849999999999985212, 1.047197551196592746 ) ;
#51 = CARTESIAN_POINT ( 'NONE',  ( 3.491481338843133355E-14, 4.386797364285915576E-33, 10.00000000000000000 ) ) ;
#52 = FACE_OUTER_BOUND ( 'NONE', #95, .T. ) ;
#53 = DIRECTION ( 'NONE',  ( -3.491481338843133355E-15, 1.224646799147353207E-16, -1.000000000000000000 ) ) ;
#54 = PERSON_AND_ORGANIZATION ( #2, #146 ) ;
#55 = DIRECTION ( 'NONE',  ( 0.0000000000000000000, 0.0000000000000000000, 1.000000000000000000 ) ) ;
#56 = CALENDAR_DATE ( 2021, 8, 10 ) ;
#57 =( LENGTH_UNIT ( ) NAMED_UNIT ( * ) SI_UNIT ( .MILLI., .METRE. ) );
#58 = CIRCLE ( 'NONE', #40, 0.5849999999999998535 ) ;
#59 = EDGE_CURVE ( 'NONE', #216, #216, #37, .T. ) ;
#60 = UNCERTAINTY_MEASURE_WITH_UNIT (LENGTH_MEASURE( 1.000000000000000082E-05 ), #57, 'distance_accuracy_value', 'NONE');
#61 = CONICAL_SURFACE ( 'NONE', #20, 0.7499999999999967804, 0.5235987755982898229 ) ;
#62 = EDGE_LOOP ( 'NONE', ( #27 ) ) ;
#63 = APPROVAL_DATE_TIME ( #211, #93 ) ;
#64 = APPROVAL_PERSON_ORGANIZATION ( #90, #18, #170 ) ;
#65 = APPROVAL_PERSON_ORGANIZATION ( #202, #93, #192 ) ;
#66 = CARTESIAN_POINT ( 'NONE',  ( 1.179247499148218996E-15, -4.136243431027173896E-17, 0.3377499074759341413 ) ) ;
#67 = DIRECTION ( 'NONE',  ( 3.491481338843133355E-15, -1.224646799147353207E-16, 1.000000000000000000 ) ) ;
#68 = CC_DESIGN_PERSON_AND_ORGANIZATION_ASSIGNMENT ( #173, #156, ( #131 ) ) ;
#69 = DIRECTION ( 'NONE',  ( 3.491481338843133355E-15, -1.224646799147353207E-16, 1.000000000000000000 ) ) ;
#70 = DIRECTION ( 'NONE',  ( -4.275831445896958607E-31, -1.000000000000000000, -1.224646799147353207E-16 ) ) ;
#71 = LOCAL_TIME ( 7, 54, 2.000000000000000000, #138 ) ;
#72 = CALENDAR_DATE ( 2021, 8, 10 ) ;
#73 = CARTESIAN_POINT ( 'NONE',  ( 0.0000000000000000000, 0.0000000000000000000, 0.0000000000000000000 ) ) ;
#74 = PERSON_AND_ORGANIZATION ( #2, #146 ) ;
#75 = DIRECTION ( 'NONE',  ( -3.491481338843133355E-15, 1.224646799147353207E-16, -1.000000000000000000 ) ) ;
#76 = ORIENTED_EDGE ( 'NONE', *, *, #212, .T. ) ;
#77 = CIRCLE ( 'NONE', #5, 0.5849999999999998535 ) ;
#78 =( GEOMETRIC_REPRESENTATION_CONTEXT ( 3 ) GLOBAL_UNCERTAINTY_ASSIGNED_CONTEXT ( ( #60 ) ) GLOBAL_UNIT_ASSIGNED_CONTEXT ( ( #57, #186, #123 ) ) REPRESENTATION_CONTEXT ( 'NONE', 'WORKASPACE' ) );
#79 = CC_DESIGN_APPROVAL ( #18, ( #162 ) ) ;
#80 = FACE_OUTER_BOUND ( 'NONE', #158, .T. ) ;
#81 = CARTESIAN_POINT ( 'NONE',  ( 1.047444401652940007E-13, -3.673940397442059178E-15, 30.00000000000000000 ) ) ;
#82 = CARTESIAN_POINT ( 'NONE',  ( 1.047444401652940007E-13, 0.5499999999999953815, 30.00000000000000000 ) ) ;
#83 = LOCAL_TIME ( 7, 54, 2.000000000000000000, #157 ) ;
#84 = DIRECTION ( 'NONE',  ( 4.275831445896958607E-31, 1.000000000000000000, 1.224646799147352961E-16 ) ) ;
#85 = DIRECTION ( 'NONE',  ( 4.275831445896958607E-31, 1.000000000000000000, 1.224646799147353207E-16 ) ) ;
#86 = PERSON_AND_ORGANIZATION_ROLE ( 'creator' ) ;
#87 = CC_DESIGN_DATE_AND_TIME_ASSIGNMENT ( #106, #1, ( #162 ) ) ;
#88 = DIRECTION ( 'NONE',  ( 1.000000000000000000, 0.0000000000000000000, 0.0000000000000000000 ) ) ;
#89 = AXIS2_PLACEMENT_3D ( 'NONE', #185, #134, #167 ) ;
#90 = PERSON_AND_ORGANIZATION ( #2, #146 ) ;
#91 = MECHANICAL_CONTEXT ( 'NONE', #28, 'mechanical' ) ;
#92 = EDGE_LOOP ( 'NONE', ( #160 ) ) ;
#93 = APPROVAL ( #8, 'UNSPECIFIED' ) ;
#94 = EDGE_LOOP ( 'NONE', ( #76 ) ) ;
#95 = EDGE_LOOP ( 'NONE', ( #208 ) ) ;
#96 = EDGE_LOOP ( 'NONE', ( #177 ) ) ;
#97 = CARTESIAN_POINT ( 'NONE',  ( 0.0000000000000000000, 0.0000000000000000000, 0.0000000000000000000 ) ) ;
#98 = ADVANCED_FACE ( 'NONE', ( #117 ), #118, .F. ) ;
#99 = CARTESIAN_POINT ( 'NONE',  ( 1.047444401652940007E-13, -3.673940397442059178E-15, 30.00000000000000000 ) ) ;
#100 = DIRECTION ( 'NONE',  ( -3.491481338843133355E-15, 1.224646799147353207E-16, -1.000000000000000000 ) ) ;
#101 = CARTESIAN_POINT ( 'NONE',  ( 1.040461438975253866E-13, -3.649447461459112464E-15, 29.80000000000000426 ) ) ;
#102 = DIRECTION ( 'NONE',  ( 0.0000000000000000000, 1.000000000000000000, 0.0000000000000000000 ) ) ;
#103 = EDGE_CURVE ( 'NONE', #217, #217, #30, .T. ) ;
#104 = PERSON_AND_ORGANIZATION_ROLE ( 'design_owner' ) ;
#105 = APPLICATION_PROTOCOL_DEFINITION ( 'international standard', 'config_control_design', 1994, #28 ) ;
#106 = DATE_AND_TIME ( #56, #71 ) ;
#107 = DESIGN_CONTEXT ( 'detailed design', #38, 'design' ) ;
#108 = AXIS2_PLACEMENT_3D ( 'NONE', #99, #133, #102 ) ;
#109 = CC_DESIGN_PERSON_AND_ORGANIZATION_ASSIGNMENT ( #139, #204, ( #131 ) ) ;
#110 = LOCAL_TIME ( 7, 54, 2.000000000000000000, #175 ) ;
#111 = EDGE_LOOP ( 'NONE', ( #4 ) ) ;
#112 = APPROVAL_PERSON_ORGANIZATION ( #122, #48, #141 ) ;
#113 = ORIENTED_EDGE ( 'NONE', *, *, #6, .T. ) ;
#114 = DIRECTION ( 'NONE',  ( -3.491481338843133355E-15, 1.224646799147353207E-16, -1.000000000000000000 ) ) ;
#115 = FACE_OUTER_BOUND ( 'NONE', #92, .T. ) ;
#116 = DIRECTION ( 'NONE',  ( 0.0000000000000000000, 1.000000000000000000, 0.0000000000000000000 ) ) ;
#117 = FACE_OUTER_BOUND ( 'NONE', #41, .T. ) ;
#118 = PLANE ( 'NONE',  #89 ) ;
#119 = CIRCLE ( 'NONE', #15, 0.5499999999999990452 ) ;
#120 = SECURITY_CLASSIFICATION_LEVEL ( 'unclassified' ) ;
#121 = ADVANCED_FACE ( 'NONE', ( #215 ), #31, .T. ) ;
#122 = PERSON_AND_ORGANIZATION ( #2, #146 ) ;
#123 =( NAMED_UNIT ( * ) SI_UNIT ( $, .STERADIAN. ) SOLID_ANGLE_UNIT ( ) );
#124 = CC_DESIGN_PERSON_AND_ORGANIZATION_ASSIGNMENT ( #74, #86, ( #162 ) ) ;
#125 = ORIENTED_EDGE ( 'NONE', *, *, #24, .F. ) ;
#126 = ADVANCED_FACE ( 'NONE', ( #80, #197 ), #159, .T. ) ;
#127 = EDGE_LOOP ( 'NONE', ( #190 ) ) ;
#128 = FACE_BOUND ( 'NONE', #111, .T. ) ;
#129 = DIRECTION ( 'NONE',  ( -3.292187939123488538E-31, -1.000000000000000000, -9.266685234918865094E-17 ) ) ;
#130 = ADVANCED_FACE ( 'NONE', ( #147 ), #144, .F. ) ;
#131 = PRODUCT_DEFINITION_FORMATION_WITH_SPECIFIED_SOURCE ( 'ANY', '', #32, .NOT_KNOWN. ) ;
#132 = DIRECTION ( 'NONE',  ( -3.491481338843133355E-15, 1.224646799147353207E-16, -1.000000000000000000 ) ) ;
#133 = DIRECTION ( 'NONE',  ( -3.491481338843133355E-15, 1.224646799147353207E-16, -1.000000000000000000 ) ) ;
#134 = DIRECTION ( 'NONE',  ( -3.491481338843133355E-15, 1.224646799147353207E-16, -1.000000000000000000 ) ) ;
#135 = DATE_TIME_ROLE ( 'classification_date' ) ;
#136 = DATE_AND_TIME ( #72, #46 ) ;
#137 = ADVANCED_FACE ( 'NONE', ( #33, #12 ), #34, .T. ) ;
#138 = COORDINATED_UNIVERSAL_TIME_OFFSET ( 1, 0, .AHEAD. ) ;
#139 = PERSON_AND_ORGANIZATION ( #2, #146 ) ;
#140 = AXIS2_PLACEMENT_3D ( 'NONE', #101, #53, #145 ) ;
#141 = APPROVAL_ROLE ( '' ) ;
#142 = DIRECTION ( 'NONE',  ( 0.0000000000000000000, 1.000000000000000000, 0.0000000000000000000 ) ) ;
#143 = ORIENTED_EDGE ( 'NONE', *, *, #59, .T. ) ;
#144 = PLANE ( 'NONE',  #176 ) ;
#145 = DIRECTION ( 'NONE',  ( 0.0000000000000000000, 1.000000000000000000, 0.0000000000000000000 ) ) ;
#146 = ORGANIZATION ( 'UNSPECIFIED', 'UNSPECIFIED', '' ) ;
#147 = FACE_OUTER_BOUND ( 'NONE', #43, .T. ) ;
#148 = CARTESIAN_POINT ( 'NONE',  ( 1.040461438975253866E-13, 0.7499999999999955591, 29.80000000000000426 ) ) ;
#149 = PRODUCT_RELATED_PRODUCT_CATEGORY ( 'detail', '', ( #32 ) ) ;
#150 = CIRCLE ( 'NONE', #187, 0.5849999999999985212 ) ;
#151 = DIRECTION ( 'NONE',  ( 0.0000000000000000000, -1.000000000000000000, 0.0000000000000000000 ) ) ;
#152 = PERSON_AND_ORGANIZATION ( #2, #146 ) ;
#153 = DATE_AND_TIME ( #174, #83 ) ;
#154 = AXIS2_PLACEMENT_3D ( 'NONE', #97, #195, #84 ) ;
#155 = APPROVAL_STATUS ( 'not_yet_approved' ) ;
#156 = PERSON_AND_ORGANIZATION_ROLE ( 'creator' ) ;
#157 = COORDINATED_UNIVERSAL_TIME_OFFSET ( 1, 0, .AHEAD. ) ;
#158 = EDGE_LOOP ( 'NONE', ( #210 ) ) ;
#159 = CONICAL_SURFACE ( 'NONE', #108, 0.5499999999999990452, 0.7853981633974604915 ) ;
#160 = ORIENTED_EDGE ( 'NONE', *, *, #200, .T. ) ;
#161 = CARTESIAN_POINT ( 'NONE',  ( 3.491481338843133355E-14, -1.224646799147353256E-15, 10.00000000000000000 ) ) ;
#162 = PRODUCT_DEFINITION ( 'UNKNOWN', '', #131, #107 ) ;
#163 = DIRECTION ( 'NONE',  ( -3.491481338843133355E-15, 1.224646799147353207E-16, -1.000000000000000000 ) ) ;
#164 = CARTESIAN_POINT ( 'NONE',  ( 3.491481338843133355E-14, 0.5849999999999987432, 10.00000000000000000 ) ) ;
#165 = AXIS2_PLACEMENT_3D ( 'NONE', #73, #55, #88 ) ;
#166 = DIRECTION ( 'NONE',  ( 3.292187939123488538E-31, 1.000000000000000000, 9.266685234918865094E-17 ) ) ;
#167 = DIRECTION ( 'NONE',  ( 4.275831445896958607E-31, 1.000000000000000000, 1.224646799147353207E-16 ) ) ;
#168 = VERTEX_POINT ( 'NONE', #21 ) ;
#169 = MANIFOLD_SOLID_BREP ( 'Corps-Déplacer/Copier1[1]', #181 ) ;
#170 = APPROVAL_ROLE ( '' ) ;
#171 = APPLICATION_PROTOCOL_DEFINITION ( 'international standard', 'config_control_design', 1994, #38 ) ;
#172 = AXIS2_PLACEMENT_3D ( 'NONE', #16, #180, #129 ) ;
#173 = PERSON_AND_ORGANIZATION ( #2, #146 ) ;
#174 = CALENDAR_DATE ( 2021, 8, 10 ) ;
#175 = COORDINATED_UNIVERSAL_TIME_OFFSET ( 1, 0, .AHEAD. ) ;
#176 = AXIS2_PLACEMENT_3D ( 'NONE', #51, #10, #70 ) ;
#177 = ORIENTED_EDGE ( 'NONE', *, *, #212, .F. ) ;
#178 = ADVANCED_FACE ( 'NONE', ( #198 ), #50, .T. ) ;
#179 = CARTESIAN_POINT ( 'NONE',  ( 3.491481338843133355E-14, -1.224646799147353256E-15, 10.00000000000000000 ) ) ;
#180 = DIRECTION ( 'NONE',  ( 3.491481338843133355E-15, -1.224646799147353207E-16, 1.000000000000000000 ) ) ;
#181 = CLOSED_SHELL ( 'NONE', ( #130, #207, #137, #126, #98 ) ) ;
#182 = CC_DESIGN_APPROVAL ( #48, ( #131 ) ) ;
#183 = DIRECTION ( 'NONE',  ( -4.275831445896958607E-31, -1.000000000000000000, -1.224646799147353207E-16 ) ) ;
#184 = CARTESIAN_POINT ( 'NONE',  ( 0.0000000000000000000, 0.0000000000000000000, 0.0000000000000000000 ) ) ;
#185 = CARTESIAN_POINT ( 'NONE',  ( 1.047444401652940007E-13, 4.124339402320045473E-33, 30.00000000000000000 ) ) ;
#186 =( NAMED_UNIT ( * ) PLANE_ANGLE_UNIT ( ) SI_UNIT ( $, .RADIAN. ) );
#187 = AXIS2_PLACEMENT_3D ( 'NONE', #66, #114, #166 ) ;
#188 = PERSON_AND_ORGANIZATION_ROLE ( 'classification_officer' ) ;
#189 = CALENDAR_DATE ( 2021, 8, 10 ) ;
#190 = ORIENTED_EDGE ( 'NONE', *, *, #24, .T. ) ;
#191 = EDGE_LOOP ( 'NONE', ( #26 ) ) ;
#192 = APPROVAL_ROLE ( '' ) ;
#193 = SHAPE_DEFINITION_REPRESENTATION ( #44, #9 ) ;
#194 = CARTESIAN_POINT ( 'NONE',  ( 3.591263819540289736E-14, -1.259645782025275180E-15, 10.28578838324886569 ) ) ;
#195 = DIRECTION ( 'NONE',  ( -3.491481338843133355E-15, 1.224646799147353207E-16, -1.000000000000000000 ) ) ;
#196 = CC_DESIGN_PERSON_AND_ORGANIZATION_ASSIGNMENT ( #152, #188, ( #205 ) ) ;
#197 = FACE_BOUND ( 'NONE', #127, .T. ) ;
#198 = FACE_OUTER_BOUND ( 'NONE', #94, .T. ) ;
#199 = VERTEX_POINT ( 'NONE', #164 ) ;
#200 = EDGE_CURVE ( 'NONE', #168, #168, #58, .T. ) ;
#201 = APPROVAL_STATUS ( 'not_yet_approved' ) ;
#202 = PERSON_AND_ORGANIZATION ( #2, #146 ) ;
#203 = LOCAL_TIME ( 7, 54, 2.000000000000000000, #206 ) ;
#204 = PERSON_AND_ORGANIZATION_ROLE ( 'design_supplier' ) ;
#205 = SECURITY_CLASSIFICATION ( '', '', #120 ) ;
#206 = COORDINATED_UNIVERSAL_TIME_OFFSET ( 1, 0, .AHEAD. ) ;
#207 = ADVANCED_FACE ( 'NONE', ( #128, #52 ), #61, .T. ) ;
#208 = ORIENTED_EDGE ( 'NONE', *, *, #103, .T. ) ;
#209 = AXIS2_PLACEMENT_3D ( 'NONE', #194, #132, #35 ) ;
#210 = ORIENTED_EDGE ( 'NONE', *, *, #59, .F. ) ;
#211 = DATE_AND_TIME ( #23, #110 ) ;
#212 = EDGE_CURVE ( 'NONE', #39, #39, #150, .T. ) ;
#213 = CLOSED_SHELL ( 'NONE', ( #178, #219, #121 ) ) ;
#214 = DIRECTION ( 'NONE',  ( 0.0000000000000000000, 1.000000000000000000, 0.0000000000000000000 ) ) ;
#215 = FACE_OUTER_BOUND ( 'NONE', #62, .T. ) ;
#216 = VERTEX_POINT ( 'NONE', #148 ) ;
#217 = VERTEX_POINT ( 'NONE', #17 ) ;
#218 = DIRECTION ( 'NONE',  ( -3.491481338843133355E-15, 1.224646799147353207E-16, -1.000000000000000000 ) ) ;
#219 = ADVANCED_FACE ( 'NONE', ( #14, #115 ), #29, .T. ) ;
#220 = COORDINATED_UNIVERSAL_TIME_OFFSET ( 1, 0, .AHEAD. ) ;
#221 = APPROVAL_DATE_TIME ( #36, #48 ) ;
#222 = APPROVAL_DATE_TIME ( #153, #18 ) ;
#223 = CC_DESIGN_SECURITY_CLASSIFICATION ( #205, ( #131 ) ) ;
ENDSEC;
END-ISO-10303-21;
