ISO-10303-21;
HEADER;
FILE_DESCRIPTION (( 'STEP AP203' ),
    '1' );
FILE_NAME ('52357.step',
    '2021-11-15T14:31:32',
    ( '' ),
    ( '' ),
    'SwSTEP 2.0',
    'SolidWorks 2019',
    '' );
FILE_SCHEMA (( 'CONFIG_CONTROL_DESIGN' ));
ENDSEC;

DATA;
#1 = CIRCLE ( 'NONE', #157, 1.499999999999996669 ) ;
#2 = FACE_OUTER_BOUND ( 'NONE', #19, .T. ) ;
#3 = FACE_OUTER_BOUND ( 'NONE', #25, .T. ) ;
#4 = DIRECTION ( 'NONE',  ( 3.491481338843133355E-15, -1.224646799147353207E-16, 1.000000000000000000 ) ) ;
#5 = ORIENTED_EDGE ( 'NONE', *, *, #69, .T. ) ;
#6 = ADVANCED_FACE ( 'NONE', ( #39, #98 ), #51, .T. ) ;
#7 = DIRECTION ( 'NONE',  ( 0.0000000000000000000, -1.000000000000000000, 0.0000000000000000000 ) ) ;
#8 = DIRECTION ( 'NONE',  ( -3.491481338843133355E-15, 1.224646799147353207E-16, -1.000000000000000000 ) ) ;
#9 = ORIENTED_EDGE ( 'NONE', *, *, #78, .F. ) ;
#10 = FACE_OUTER_BOUND ( 'NONE', #136, .T. ) ;
#11 = TOROIDAL_SURFACE ( 'NONE', #38, 9.000000000000003553, 8.000000000000000000 ) ;
#12 = DATE_AND_TIME ( #102, #52 ) ;
#13 = DESIGN_CONTEXT ( 'detailed design', #178, 'design' ) ;
#14 = CC_DESIGN_DATE_AND_TIME_ASSIGNMENT ( #12, #89, ( #150 ) ) ;
#15 = ORGANIZATION ( 'UNSPECIFIED', 'UNSPECIFIED', '' ) ;
#16 = AXIS2_PLACEMENT_3D ( 'NONE', #87, #110, #212 ) ;
#17 = CARTESIAN_POINT ( 'NONE',  ( 2.444036937190193033E-14, -1.000000000000002665, 6.999999999999999112 ) ) ;
#18 = CARTESIAN_POINT ( 'NONE',  ( 1.326762908760390423E-13, 1.199999999999991962, 38.00000000000000000 ) ) ;
#19 = EDGE_LOOP ( 'NONE', ( #46 ) ) ;
#20 = CARTESIAN_POINT ( 'NONE',  ( 1.316288464743861212E-13, 1.499999999999992228, 37.69999999999999574 ) ) ;
#21 = CC_DESIGN_PERSON_AND_ORGANIZATION_ASSIGNMENT ( #53, #206, ( #109 ) ) ;
#22 = ORIENTED_EDGE ( 'NONE', *, *, #146, .T. ) ;
#23 = DIRECTION ( 'NONE',  ( 3.491481338843133355E-15, -1.224646799147353207E-16, 1.000000000000000000 ) ) ;
#24 = ORIENTED_EDGE ( 'NONE', *, *, #146, .F. ) ;
#25 = EDGE_LOOP ( 'NONE', ( #97 ) ) ;
#26 = ORIENTED_EDGE ( 'NONE', *, *, #156, .F. ) ;
#27 = SECURITY_CLASSIFICATION_LEVEL ( 'unclassified' ) ;
#28 = AXIS2_PLACEMENT_3D ( 'NONE', #200, #23, #96 ) ;
#29 = CC_DESIGN_SECURITY_CLASSIFICATION ( #150, ( #109 ) ) ;
#30 = PERSON_AND_ORGANIZATION_ROLE ( 'creator' ) ;
#31 = ADVANCED_FACE ( 'NONE', ( #187, #111 ), #100, .T. ) ;
#32 = APPROVAL_DATE_TIME ( #140, #106 ) ;
#33 = MANIFOLD_SOLID_BREP ( 'Corps-Déplacer/Copier1[1]', #129 ) ;
#34 = DATE_AND_TIME ( #192, #104 ) ;
#35 = APPROVAL_DATE_TIME ( #34, #201 ) ;
#36 = ADVANCED_FACE ( 'NONE', ( #67 ), #166, .F. ) ;
#37 =( NAMED_UNIT ( * ) SI_UNIT ( $, .STERADIAN. ) SOLID_ANGLE_UNIT ( ) );
#38 = AXIS2_PLACEMENT_3D ( 'NONE', #215, #63, #60 ) ;
#39 = FACE_OUTER_BOUND ( 'NONE', #163, .T. ) ;
#40 = CC_DESIGN_APPROVAL ( #135, ( #109 ) ) ;
#41 = VERTEX_POINT ( 'NONE', #84 ) ;
#42 = ORIENTED_EDGE ( 'NONE', *, *, #78, .T. ) ;
#43 = DIRECTION ( 'NONE',  ( -3.491481338843133355E-15, 1.224646799147353207E-16, -1.000000000000000000 ) ) ;
#44 = FACE_OUTER_BOUND ( 'NONE', #182, .T. ) ;
#45 =( GEOMETRIC_REPRESENTATION_CONTEXT ( 3 ) GLOBAL_UNCERTAINTY_ASSIGNED_CONTEXT ( ( #189 ) ) GLOBAL_UNIT_ASSIGNED_CONTEXT ( ( #219, #185, #37 ) ) REPRESENTATION_CONTEXT ( 'NONE', 'WORKASPACE' ) );
#46 = ORIENTED_EDGE ( 'NONE', *, *, #69, .F. ) ;
#47 = APPROVAL_DATE_TIME ( #91, #135 ) ;
#48 = ORIENTED_EDGE ( 'NONE', *, *, #156, .T. ) ;
#49 = DATE_TIME_ROLE ( 'creation_date' ) ;
#50 = DIRECTION ( 'NONE',  ( -3.491481338843133355E-15, 1.244996138440932305E-16, -1.000000000000000000 ) ) ;
#51 = CONICAL_SURFACE ( 'NONE', #142, 1.199999999999996403, 0.7853981633974461696 ) ;
#52 = LOCAL_TIME ( 15, 31, 32.00000000000000000, #121 ) ;
#53 = PERSON_AND_ORGANIZATION ( #77, #15 ) ;
#54 = ADVANCED_FACE ( 'NONE', ( #3, #85 ), #81, .T. ) ;
#55 = PERSON_AND_ORGANIZATION_ROLE ( 'design_supplier' ) ;
#56 = AXIS2_PLACEMENT_3D ( 'NONE', #151, #66, #116 ) ;
#57 = AXIS2_PLACEMENT_3D ( 'NONE', #118, #4, #162 ) ;
#58 = CC_DESIGN_PERSON_AND_ORGANIZATION_ASSIGNMENT ( #123, #55, ( #109 ) ) ;
#59 = VERTEX_POINT ( 'NONE', #130 ) ;
#60 = DIRECTION ( 'NONE',  ( -4.409363829953005302E-31, -1.000000000000000000, -1.244996138440932305E-16 ) ) ;
#61 = PERSON_AND_ORGANIZATION ( #77, #15 ) ;
#62 = CIRCLE ( 'NONE', #76, 1.000000000000001776 ) ;
#63 = DIRECTION ( 'NONE',  ( 3.491481338843133355E-15, -1.244996138440932305E-16, 1.000000000000000000 ) ) ;
#64 = VERTEX_POINT ( 'NONE', #18 ) ;
#65 = ADVANCED_BREP_SHAPE_REPRESENTATION ( '52357', ( #33, #120, #16 ), #45 ) ;
#66 = DIRECTION ( 'NONE',  ( 3.491481338843133355E-15, -1.244996138440932305E-16, 1.000000000000000000 ) ) ;
#67 = FACE_OUTER_BOUND ( 'NONE', #217, .T. ) ;
#68 = DATE_AND_TIME ( #105, #88 ) ;
#69 = EDGE_CURVE ( 'NONE', #41, #41, #149, .T. ) ;
#70 = AXIS2_PLACEMENT_3D ( 'NONE', #164, #134, #138 ) ;
#71 = DIRECTION ( 'NONE',  ( 3.491481338843133355E-15, -1.244996138440932305E-16, 1.000000000000000000 ) ) ;
#72 = APPROVAL_PERSON_ORGANIZATION ( #167, #135, #171 ) ;
#73 = COORDINATED_UNIVERSAL_TIME_OFFSET ( 1, 0, .AHEAD. ) ;
#74 = DIRECTION ( 'NONE',  ( -3.491481338843133355E-15, 1.224646799147353207E-16, -1.000000000000000000 ) ) ;
#75 = CALENDAR_DATE ( 2021, 15, 11 ) ;
#76 = AXIS2_PLACEMENT_3D ( 'NONE', #221, #184, #139 ) ;
#77 = PERSON ( 'UNSPECIFIED', 'UNSPECIFIED', 'UNSPECIFIED', ('UNSPECIFIED'), ('UNSPECIFIED'), ('UNSPECIFIED') ) ;
#78 = EDGE_CURVE ( 'NONE', #137, #137, #62, .T. ) ;
#79 = LOCAL_TIME ( 15, 31, 32.00000000000000000, #73 ) ;
#80 = CARTESIAN_POINT ( 'NONE',  ( 2.444036937190193033E-14, -8.714972969086524658E-16, 6.999999999999999112 ) ) ;
#81 = CYLINDRICAL_SURFACE ( 'NONE', #222, 1.499999999999994893 ) ;
#82 = VERTEX_POINT ( 'NONE', #152 ) ;
#83 = DIRECTION ( 'NONE',  ( -4.346880784298277610E-31, -1.000000000000000000, -1.244996138440932552E-16 ) ) ;
#84 = CARTESIAN_POINT ( 'NONE',  ( -8.693761568596555220E-31, -1.000000000000000000, -2.489992276881864611E-16 ) ) ;
#85 = FACE_OUTER_BOUND ( 'NONE', #154, .T. ) ;
#86 = PRODUCT_RELATED_PRODUCT_CATEGORY ( 'detail', '', ( #113 ) ) ;
#87 = CARTESIAN_POINT ( 'NONE',  ( 0.0000000000000000000, 0.0000000000000000000, 0.0000000000000000000 ) ) ;
#88 = LOCAL_TIME ( 15, 31, 32.00000000000000000, #208 ) ;
#89 = DATE_TIME_ROLE ( 'classification_date' ) ;
#90 = CALENDAR_DATE ( 2021, 15, 11 ) ;
#91 = DATE_AND_TIME ( #75, #158 ) ;
#92 = CIRCLE ( 'NONE', #191, 1.199999999999996403 ) ;
#93 = ADVANCED_FACE ( 'NONE', ( #112 ), #195, .T. ) ;
#94 = VERTEX_POINT ( 'NONE', #20 ) ;
#95 = EDGE_LOOP ( 'NONE', ( #22 ) ) ;
#96 = DIRECTION ( 'NONE',  ( -4.275831445896958607E-31, -1.000000000000000000, -1.224646799147353207E-16 ) ) ;
#97 = ORIENTED_EDGE ( 'NONE', *, *, #160, .T. ) ;
#98 = FACE_BOUND ( 'NONE', #95, .T. ) ;
#99 = CC_DESIGN_PERSON_AND_ORGANIZATION_ASSIGNMENT ( #147, #214, ( #113 ) ) ;
#100 = CYLINDRICAL_SURFACE ( 'NONE', #107, 1.000000000000000888 ) ;
#101 = DIRECTION ( 'NONE',  ( 4.275831445896958607E-31, 1.000000000000000000, 1.224646799147353207E-16 ) ) ;
#102 = CALENDAR_DATE ( 2021, 15, 11 ) ;
#103 = CIRCLE ( 'NONE', #145, 1.499999999999994893 ) ;
#104 = LOCAL_TIME ( 15, 31, 32.00000000000000000, #144 ) ;
#105 = CALENDAR_DATE ( 2021, 15, 11 ) ;
#106 = APPROVAL ( #132, 'UNSPECIFIED' ) ;
#107 = AXIS2_PLACEMENT_3D ( 'NONE', #186, #71, #83 ) ;
#108 = MECHANICAL_CONTEXT ( 'NONE', #161, 'mechanical' ) ;
#109 = PRODUCT_DEFINITION_FORMATION_WITH_SPECIFIED_SOURCE ( 'ANY', '', #113, .NOT_KNOWN. ) ;
#110 = DIRECTION ( 'NONE',  ( 0.0000000000000000000, 0.0000000000000000000, 1.000000000000000000 ) ) ;
#111 = FACE_OUTER_BOUND ( 'NONE', #205, .T. ) ;
#112 = FACE_OUTER_BOUND ( 'NONE', #131, .T. ) ;
#113 = PRODUCT ( '52357', '52357', '', ( #108 ) ) ;
#114 = FACE_OUTER_BOUND ( 'NONE', #119, .T. ) ;
#115 = CC_DESIGN_PERSON_AND_ORGANIZATION_ASSIGNMENT ( #209, #30, ( #126 ) ) ;
#116 = DIRECTION ( 'NONE',  ( -4.346880784298278486E-31, -1.000000000000000000, -1.244996138440932305E-16 ) ) ;
#117 = CIRCLE ( 'NONE', #210, 1.000000000000001776 ) ;
#118 = CARTESIAN_POINT ( 'NONE',  ( 2.444036937190193349E-14, 1.124819836996386774E-32, 7.000000000000000000 ) ) ;
#119 = EDGE_LOOP ( 'NONE', ( #9 ) ) ;
#120 = MANIFOLD_SOLID_BREP ( 'Corps-Déplacer/Copier1[2]', #128 ) ;
#121 = COORDINATED_UNIVERSAL_TIME_OFFSET ( 1, 0, .AHEAD. ) ;
#122 = EDGE_LOOP ( 'NONE', ( #5 ) ) ;
#123 = PERSON_AND_ORGANIZATION ( #77, #15 ) ;
#124 = DIRECTION ( 'NONE',  ( 0.0000000000000000000, 1.000000000000000000, 0.0000000000000000000 ) ) ;
#125 = PERSON_AND_ORGANIZATION ( #77, #15 ) ;
#126 = PRODUCT_DEFINITION ( 'UNKNOWN', '', #109, #13 ) ;
#127 = APPROVAL_ROLE ( '' ) ;
#128 = CLOSED_SHELL ( 'NONE', ( #93, #31, #193 ) ) ;
#129 = CLOSED_SHELL ( 'NONE', ( #54, #6, #36, #143, #172 ) ) ;
#130 = CARTESIAN_POINT ( 'NONE',  ( 2.444036937190193033E-14, -1.000000000000002665, 6.999999999999999112 ) ) ;
#131 = EDGE_LOOP ( 'NONE', ( #180 ) ) ;
#132 = APPROVAL_STATUS ( 'not_yet_approved' ) ;
#133 = CC_DESIGN_APPROVAL ( #201, ( #150 ) ) ;
#134 = DIRECTION ( 'NONE',  ( -3.491481338843133355E-15, 1.224646799147353207E-16, -1.000000000000000000 ) ) ;
#135 = APPROVAL ( #204, 'UNSPECIFIED' ) ;
#136 = EDGE_LOOP ( 'NONE', ( #42 ) ) ;
#137 = VERTEX_POINT ( 'NONE', #17 ) ;
#138 = DIRECTION ( 'NONE',  ( 4.275831445896958607E-31, 1.000000000000000000, 1.224646799147353207E-16 ) ) ;
#139 = DIRECTION ( 'NONE',  ( 0.0000000000000000000, -1.000000000000000000, 0.0000000000000000000 ) ) ;
#140 = DATE_AND_TIME ( #90, #79 ) ;
#141 = CARTESIAN_POINT ( 'NONE',  ( 3.416024205785027231E-14, -2.081315732550424822E-15, 9.783882181414986334 ) ) ;
#142 = AXIS2_PLACEMENT_3D ( 'NONE', #165, #8, #198 ) ;
#143 = ADVANCED_FACE ( 'NONE', ( #10, #44 ), #11, .F. ) ;
#144 = COORDINATED_UNIVERSAL_TIME_OFFSET ( 1, 0, .AHEAD. ) ;
#145 = AXIS2_PLACEMENT_3D ( 'NONE', #141, #50, #124 ) ;
#146 = EDGE_CURVE ( 'NONE', #64, #64, #92, .T. ) ;
#147 = PERSON_AND_ORGANIZATION ( #77, #15 ) ;
#148 = DIRECTION ( 'NONE',  ( 3.491481338843133355E-15, -1.224646799147353207E-16, 1.000000000000000000 ) ) ;
#149 = CIRCLE ( 'NONE', #56, 1.000000000000000000 ) ;
#150 = SECURITY_CLASSIFICATION ( '', '', #27 ) ;
#151 = CARTESIAN_POINT ( 'NONE',  ( -4.346880784298276734E-31, 1.550015384732832965E-32, -1.244996138440932305E-16 ) ) ;
#152 = CARTESIAN_POINT ( 'NONE',  ( 3.416024205785027231E-14, 1.499999999999992673, 9.783882181414986334 ) ) ;
#153 = CARTESIAN_POINT ( 'NONE',  ( 0.0000000000000000000, 0.0000000000000000000, 0.0000000000000000000 ) ) ;
#154 = EDGE_LOOP ( 'NONE', ( #26 ) ) ;
#155 = CARTESIAN_POINT ( 'NONE',  ( 1.326762908760390423E-13, -4.653657836759941941E-15, 38.00000000000000000 ) ) ;
#156 = EDGE_CURVE ( 'NONE', #82, #82, #103, .T. ) ;
#157 = AXIS2_PLACEMENT_3D ( 'NONE', #223, #43, #216 ) ;
#158 = LOCAL_TIME ( 15, 31, 32.00000000000000000, #188 ) ;
#159 = SHAPE_DEFINITION_REPRESENTATION ( #199, #65 ) ;
#160 = EDGE_CURVE ( 'NONE', #94, #94, #1, .T. ) ;
#161 = APPLICATION_CONTEXT ( 'configuration controlled 3d designs of mechanical parts and assemblies' ) ;
#162 = DIRECTION ( 'NONE',  ( -4.275831445896958607E-31, -1.000000000000000000, -1.224646799147353207E-16 ) ) ;
#163 = EDGE_LOOP ( 'NONE', ( #220 ) ) ;
#164 = CARTESIAN_POINT ( 'NONE',  ( 1.326762908760390423E-13, 8.998558695971051224E-33, 38.00000000000000000 ) ) ;
#165 = CARTESIAN_POINT ( 'NONE',  ( 1.326762908760390423E-13, -4.653657836759941941E-15, 38.00000000000000000 ) ) ;
#166 = PLANE ( 'NONE',  #70 ) ;
#167 = PERSON_AND_ORGANIZATION ( #77, #15 ) ;
#168 = DIRECTION ( 'NONE',  ( -4.275831445896958607E-31, -1.000000000000000000, -1.224646799147353207E-16 ) ) ;
#169 = PERSON_AND_ORGANIZATION ( #77, #15 ) ;
#170 = APPROVAL_PERSON_ORGANIZATION ( #125, #201, #127 ) ;
#171 = APPROVAL_ROLE ( '' ) ;
#172 = ADVANCED_FACE ( 'NONE', ( #114 ), #183, .F. ) ;
#173 = PERSON_AND_ORGANIZATION_ROLE ( 'classification_officer' ) ;
#174 = APPROVAL_PERSON_ORGANIZATION ( #61, #106, #196 ) ;
#175 = ORIENTED_EDGE ( 'NONE', *, *, #211, .F. ) ;
#176 = CC_DESIGN_DATE_AND_TIME_ASSIGNMENT ( #68, #49, ( #126 ) ) ;
#177 = CC_DESIGN_APPROVAL ( #106, ( #126 ) ) ;
#178 = APPLICATION_CONTEXT ( 'configuration controlled 3d designs of mechanical parts and assemblies' ) ;
#179 = DIRECTION ( 'NONE',  ( 3.491481338843133355E-15, -1.244996138440932305E-16, 1.000000000000000000 ) ) ;
#180 = ORIENTED_EDGE ( 'NONE', *, *, #211, .T. ) ;
#181 = APPLICATION_PROTOCOL_DEFINITION ( 'international standard', 'config_control_design', 1994, #178 ) ;
#182 = EDGE_LOOP ( 'NONE', ( #48 ) ) ;
#183 = PLANE ( 'NONE',  #57 ) ;
#184 = DIRECTION ( 'NONE',  ( 3.491481338843133355E-15, -1.244996138440932305E-16, 1.000000000000000000 ) ) ;
#185 =( NAMED_UNIT ( * ) PLANE_ANGLE_UNIT ( ) SI_UNIT ( $, .RADIAN. ) );
#186 = CARTESIAN_POINT ( 'NONE',  ( 0.0000000000000000000, 0.0000000000000000000, 0.0000000000000000000 ) ) ;
#187 = FACE_OUTER_BOUND ( 'NONE', #122, .T. ) ;
#188 = COORDINATED_UNIVERSAL_TIME_OFFSET ( 1, 0, .AHEAD. ) ;
#189 = UNCERTAINTY_MEASURE_WITH_UNIT (LENGTH_MEASURE( 1.000000000000000082E-05 ), #219, 'distance_accuracy_value', 'NONE');
#190 = APPROVAL_STATUS ( 'not_yet_approved' ) ;
#191 = AXIS2_PLACEMENT_3D ( 'NONE', #155, #74, #207 ) ;
#192 = CALENDAR_DATE ( 2021, 15, 11 ) ;
#193 = ADVANCED_FACE ( 'NONE', ( #2 ), #213, .F. ) ;
#194 = APPLICATION_PROTOCOL_DEFINITION ( 'international standard', 'config_control_design', 1994, #161 ) ;
#195 = PLANE ( 'NONE',  #203 ) ;
#196 = APPROVAL_ROLE ( '' ) ;
#197 = CARTESIAN_POINT ( 'NONE',  ( 2.444036937190193349E-14, 1.124819836996386774E-32, 7.000000000000000000 ) ) ;
#198 = DIRECTION ( 'NONE',  ( 0.0000000000000000000, 1.000000000000000000, 0.0000000000000000000 ) ) ;
#199 = PRODUCT_DEFINITION_SHAPE ( 'NONE', 'NONE',  #126 ) ;
#200 = CARTESIAN_POINT ( 'NONE',  ( -8.551680453529350800E-31, 2.999525725151307090E-32, -2.449298628175645296E-16 ) ) ;
#201 = APPROVAL ( #190, 'UNSPECIFIED' ) ;
#202 = DIRECTION ( 'NONE',  ( -3.491481338843133355E-15, 1.224646799147353207E-16, -1.000000000000000000 ) ) ;
#203 = AXIS2_PLACEMENT_3D ( 'NONE', #197, #148, #168 ) ;
#204 = APPROVAL_STATUS ( 'not_yet_approved' ) ;
#205 = EDGE_LOOP ( 'NONE', ( #175 ) ) ;
#206 = PERSON_AND_ORGANIZATION_ROLE ( 'creator' ) ;
#207 = DIRECTION ( 'NONE',  ( 0.0000000000000000000, 1.000000000000000000, 0.0000000000000000000 ) ) ;
#208 = COORDINATED_UNIVERSAL_TIME_OFFSET ( 1, 0, .AHEAD. ) ;
#209 = PERSON_AND_ORGANIZATION ( #77, #15 ) ;
#210 = AXIS2_PLACEMENT_3D ( 'NONE', #80, #179, #7 ) ;
#211 = EDGE_CURVE ( 'NONE', #59, #59, #117, .T. ) ;
#212 = DIRECTION ( 'NONE',  ( 1.000000000000000000, 0.0000000000000000000, 0.0000000000000000000 ) ) ;
#213 = PLANE ( 'NONE',  #28 ) ;
#214 = PERSON_AND_ORGANIZATION_ROLE ( 'design_owner' ) ;
#215 = CARTESIAN_POINT ( 'NONE',  ( 2.444036937190192718E-14, -1.734723475976807094E-15, 6.999999999999998224 ) ) ;
#216 = DIRECTION ( 'NONE',  ( 0.0000000000000000000, 1.000000000000000000, 0.0000000000000000000 ) ) ;
#217 = EDGE_LOOP ( 'NONE', ( #24 ) ) ;
#218 = CC_DESIGN_PERSON_AND_ORGANIZATION_ASSIGNMENT ( #169, #173, ( #150 ) ) ;
#219 =( LENGTH_UNIT ( ) NAMED_UNIT ( * ) SI_UNIT ( .MILLI., .METRE. ) );
#220 = ORIENTED_EDGE ( 'NONE', *, *, #160, .F. ) ;
#221 = CARTESIAN_POINT ( 'NONE',  ( 2.444036937190193033E-14, -8.714972969086524658E-16, 6.999999999999999112 ) ) ;
#222 = AXIS2_PLACEMENT_3D ( 'NONE', #153, #202, #101 ) ;
#223 = CARTESIAN_POINT ( 'NONE',  ( 1.316288464743861212E-13, -4.616918432785521081E-15, 37.69999999999999574 ) ) ;
ENDSEC;
END-ISO-10303-21;
