ISO-10303-21;
HEADER;
FILE_DESCRIPTION (( 'STEP AP203' ),
    '1' );
FILE_NAME ('52214.step',
    '2021-10-08T05:54:02',
    ( '' ),
    ( '' ),
    'SwSTEP 2.0',
    'SolidWorks 2019',
    '' );
FILE_SCHEMA (( 'CONFIG_CONTROL_DESIGN' ));
ENDSEC;

DATA;
#1 = FACE_OUTER_BOUND ( 'NONE', #196, .T. ) ;
#2 = DESIGN_CONTEXT ( 'detailed design', #188, 'design' ) ;
#3 = APPROVAL_PERSON_ORGANIZATION ( #146, #155, #166 ) ;
#4 = ORIENTED_EDGE ( 'NONE', *, *, #85, .F. ) ;
#5 = PLANE ( 'NONE',  #201 ) ;
#6 = FACE_BOUND ( 'NONE', #157, .T. ) ;
#7 = LOCAL_TIME ( 7, 54, 2.000000000000000000, #14 ) ;
#8 = DIRECTION ( 'NONE',  ( 0.0000000000000000000, 1.000000000000000000, 0.0000000000000000000 ) ) ;
#9 = CARTESIAN_POINT ( 'NONE',  ( 1.326762908760390423E-13, -4.653657836759941941E-15, 38.00000000000000000 ) ) ;
#10 = PERSON ( 'UNSPECIFIED', 'UNSPECIFIED', 'UNSPECIFIED', ('UNSPECIFIED'), ('UNSPECIFIED'), ('UNSPECIFIED') ) ;
#11 = DIRECTION ( 'NONE',  ( -3.491481338843133355E-15, 1.224646799147353207E-16, -1.000000000000000000 ) ) ;
#12 = CC_DESIGN_APPROVAL ( #29, ( #53 ) ) ;
#13 = VERTEX_POINT ( 'NONE', #16 ) ;
#14 = COORDINATED_UNIVERSAL_TIME_OFFSET ( 1, 0, .AHEAD. ) ;
#15 = APPROVAL ( #89, 'UNSPECIFIED' ) ;
#16 = CARTESIAN_POINT ( 'NONE',  ( 1.965412498580367162E-15, 0.9749999999999984235, 0.5629165124598908276 ) ) ;
#17 = CIRCLE ( 'NONE', #176, 0.9999999999999970024 ) ;
#18 = COORDINATED_UNIVERSAL_TIME_OFFSET ( 1, 0, .AHEAD. ) ;
#19 = ADVANCED_FACE ( 'NONE', ( #174, #1 ), #41, .T. ) ;
#20 = APPROVAL_DATE_TIME ( #102, #155 ) ;
#21 = SHAPE_DEFINITION_REPRESENTATION ( #111, #135 ) ;
#22 = EDGE_LOOP ( 'NONE', ( #171 ) ) ;
#23 = CC_DESIGN_PERSON_AND_ORGANIZATION_ASSIGNMENT ( #119, #32, ( #130 ) ) ;
#24 = DIRECTION ( 'NONE',  ( -3.491481338843133355E-15, 1.224646799147353207E-16, -1.000000000000000000 ) ) ;
#25 = PLANE ( 'NONE',  #193 ) ;
#26 = CYLINDRICAL_SURFACE ( 'NONE', #170, 0.9999999999999988898 ) ;
#27 = CONICAL_SURFACE ( 'NONE', #76, 0.8000000000000010436, 0.7853981633974510546 ) ;
#28 = FACE_OUTER_BOUND ( 'NONE', #34, .T. ) ;
#29 = APPROVAL ( #186, 'UNSPECIFIED' ) ;
#30 = DIRECTION ( 'NONE',  ( 0.0000000000000000000, 1.000000000000000000, 0.0000000000000000000 ) ) ;
#31 = APPROVAL_DATE_TIME ( #184, #29 ) ;
#32 = PERSON_AND_ORGANIZATION_ROLE ( 'classification_officer' ) ;
#33 = APPROVAL_ROLE ( '' ) ;
#34 = EDGE_LOOP ( 'NONE', ( #38 ) ) ;
#35 = PRODUCT_RELATED_PRODUCT_CATEGORY ( 'detail', '', ( #81 ) ) ;
#36 = ORIENTED_EDGE ( 'NONE', *, *, #200, .T. ) ;
#37 = AXIS2_PLACEMENT_3D ( 'NONE', #159, #164, #116 ) ;
#38 = ORIENTED_EDGE ( 'NONE', *, *, #92, .F. ) ;
#39 = FACE_OUTER_BOUND ( 'NONE', #22, .T. ) ;
#40 = CARTESIAN_POINT ( 'NONE',  ( 0.0000000000000000000, 0.0000000000000000000, 0.0000000000000000000 ) ) ;
#41 = CONICAL_SURFACE ( 'NONE', #70, 0.9999999999999970024, 0.5235987755982789427 ) ;
#42 = FACE_OUTER_BOUND ( 'NONE', #72, .T. ) ;
#43 = CC_DESIGN_PERSON_AND_ORGANIZATION_ASSIGNMENT ( #185, #148, ( #54 ) ) ;
#44 = CARTESIAN_POINT ( 'NONE',  ( 4.189777606611760026E-14, 7.311328940476539417E-33, 12.00000000000000000 ) ) ;
#45 = AXIS2_PLACEMENT_3D ( 'NONE', #97, #128, #8 ) ;
#46 = ADVANCED_FACE ( 'NONE', ( #63, #129 ), #58, .T. ) ;
#47 = PERSON_AND_ORGANIZATION ( #10, #169 ) ;
#48 = CONICAL_SURFACE ( 'NONE', #147, 0.9749999999999985345, 1.047197551196592746 ) ;
#49 =( LENGTH_UNIT ( ) NAMED_UNIT ( * ) SI_UNIT ( .MILLI., .METRE. ) );
#50 = DIRECTION ( 'NONE',  ( 1.000000000000000000, 0.0000000000000000000, 0.0000000000000000000 ) ) ;
#51 = CC_DESIGN_APPROVAL ( #15, ( #130 ) ) ;
#52 = ORIENTED_EDGE ( 'NONE', *, *, #118, .T. ) ;
#53 = PRODUCT_DEFINITION ( 'UNKNOWN', '', #54, #2 ) ;
#54 = PRODUCT_DEFINITION_FORMATION_WITH_SPECIFIED_SOURCE ( 'ANY', '', #81, .NOT_KNOWN. ) ;
#55 = EDGE_LOOP ( 'NONE', ( #141 ) ) ;
#56 = ADVANCED_FACE ( 'NONE', ( #28 ), #5, .T. ) ;
#57 = CARTESIAN_POINT ( 'NONE',  ( 4.204896164293145655E-14, -1.474879035170447788E-15, 12.04330127018921814 ) ) ;
#58 = CYLINDRICAL_SURFACE ( 'NONE', #100, 0.9749999999999997558 ) ;
#59 = FACE_OUTER_BOUND ( 'NONE', #211, .T. ) ;
#60 = CARTESIAN_POINT ( 'NONE',  ( 4.189777606611760026E-14, -1.469576158976823947E-15, 12.00000000000000000 ) ) ;
#61 = CLOSED_SHELL ( 'NONE', ( #222, #19, #68, #154, #219 ) ) ;
#62 = CARTESIAN_POINT ( 'NONE',  ( 4.189777606611760026E-14, 0.9749999999999993117, 12.00000000000000000 ) ) ;
#63 = FACE_OUTER_BOUND ( 'NONE', #90, .T. ) ;
#64 = CIRCLE ( 'NONE', #198, 0.9750000000000008660 ) ;
#65 = PERSON_AND_ORGANIZATION ( #10, #169 ) ;
#66 = CC_DESIGN_APPROVAL ( #155, ( #54 ) ) ;
#67 = APPLICATION_PROTOCOL_DEFINITION ( 'international standard', 'config_control_design', 1994, #188 ) ;
#68 = ADVANCED_FACE ( 'NONE', ( #39, #42 ), #26, .T. ) ;
#69 = DATE_TIME_ROLE ( 'classification_date' ) ;
#70 = AXIS2_PLACEMENT_3D ( 'NONE', #57, #175, #78 ) ;
#71 = ORIENTED_EDGE ( 'NONE', *, *, #85, .T. ) ;
#72 = EDGE_LOOP ( 'NONE', ( #210 ) ) ;
#73 = AXIS2_PLACEMENT_3D ( 'NONE', #180, #144, #145 ) ;
#74 = DIRECTION ( 'NONE',  ( 3.491481338843133355E-15, -1.224646799147353207E-16, 1.000000000000000000 ) ) ;
#75 = CARTESIAN_POINT ( 'NONE',  ( 1.326762908760390423E-13, -4.653657836759941941E-15, 38.00000000000000000 ) ) ;
#76 = AXIS2_PLACEMENT_3D ( 'NONE', #75, #143, #115 ) ;
#77 = DIRECTION ( 'NONE',  ( 4.275831445896957731E-31, 1.000000000000000000, 1.224646799147353454E-16 ) ) ;
#78 = DIRECTION ( 'NONE',  ( 0.0000000000000000000, -1.000000000000000000, 0.0000000000000000000 ) ) ;
#79 = PLANE ( 'NONE',  #208 ) ;
#80 = LOCAL_TIME ( 7, 54, 2.000000000000000000, #106 ) ;
#81 = PRODUCT ( '52214', '52214', '', ( #218 ) ) ;
#82 = CALENDAR_DATE ( 2021, 8, 10 ) ;
#83 = COORDINATED_UNIVERSAL_TIME_OFFSET ( 1, 0, .AHEAD. ) ;
#84 = VERTEX_POINT ( 'NONE', #221 ) ;
#85 = EDGE_CURVE ( 'NONE', #177, #177, #87, .T. ) ;
#86 = DATE_TIME_ROLE ( 'creation_date' ) ;
#87 = CIRCLE ( 'NONE', #127, 0.8000000000000010436 ) ;
#88 = PERSON_AND_ORGANIZATION ( #10, #169 ) ;
#89 = APPROVAL_STATUS ( 'not_yet_approved' ) ;
#90 = EDGE_LOOP ( 'NONE', ( #191 ) ) ;
#91 = CARTESIAN_POINT ( 'NONE',  ( 4.204896164293145655E-14, -1.474879035170447788E-15, 12.04330127018921814 ) ) ;
#92 = EDGE_CURVE ( 'NONE', #199, #199, #153, .T. ) ;
#93 = CARTESIAN_POINT ( 'NONE',  ( 1.319779946082704535E-13, 0.9999999999999963363, 37.79999999999999716 ) ) ;
#94 = DIRECTION ( 'NONE',  ( 3.491481338843133355E-15, -1.224646799147353207E-16, 1.000000000000000000 ) ) ;
#95 = LOCAL_TIME ( 7, 54, 2.000000000000000000, #83 ) ;
#96 = DIRECTION ( 'NONE',  ( 4.275831445896958607E-31, 1.000000000000000000, 1.224646799147353207E-16 ) ) ;
#97 = CARTESIAN_POINT ( 'NONE',  ( 4.189777606611760026E-14, -1.469576158976823947E-15, 12.00000000000000000 ) ) ;
#98 = UNCERTAINTY_MEASURE_WITH_UNIT (LENGTH_MEASURE( 1.000000000000000082E-05 ), #49, 'distance_accuracy_value', 'NONE');
#99 = APPROVAL_STATUS ( 'not_yet_approved' ) ;
#100 = AXIS2_PLACEMENT_3D ( 'NONE', #124, #162, #96 ) ;
#101 = COORDINATED_UNIVERSAL_TIME_OFFSET ( 1, 0, .AHEAD. ) ;
#102 = DATE_AND_TIME ( #82, #95 ) ;
#103 = APPROVAL_PERSON_ORGANIZATION ( #136, #29, #33 ) ;
#104 = CALENDAR_DATE ( 2021, 8, 10 ) ;
#105 = CC_DESIGN_PERSON_AND_ORGANIZATION_ASSIGNMENT ( #117, #149, ( #54 ) ) ;
#106 = COORDINATED_UNIVERSAL_TIME_OFFSET ( 1, 0, .AHEAD. ) ;
#107 = ORIENTED_EDGE ( 'NONE', *, *, #200, .F. ) ;
#108 = EDGE_CURVE ( 'NONE', #179, #179, #212, .T. ) ;
#109 = APPROVAL_ROLE ( '' ) ;
#110 = ORIENTED_EDGE ( 'NONE', *, *, #108, .F. ) ;
#111 = PRODUCT_DEFINITION_SHAPE ( 'NONE', 'NONE',  #53 ) ;
#112 = CARTESIAN_POINT ( 'NONE',  ( 4.189777606611760026E-14, 7.311328940476539417E-33, 12.00000000000000000 ) ) ;
#113 = ADVANCED_FACE ( 'NONE', ( #213 ), #48, .T. ) ;
#114 = FACE_OUTER_BOUND ( 'NONE', #195, .T. ) ;
#115 = DIRECTION ( 'NONE',  ( 0.0000000000000000000, 1.000000000000000000, 0.0000000000000000000 ) ) ;
#116 = DIRECTION ( 'NONE',  ( 3.950625526948182217E-31, 1.000000000000000000, 1.112002228190262677E-16 ) ) ;
#117 = PERSON_AND_ORGANIZATION ( #10, #169 ) ;
#118 = EDGE_CURVE ( 'NONE', #13, #13, #122, .T. ) ;
#119 = PERSON_AND_ORGANIZATION ( #10, #169 ) ;
#120 = CALENDAR_DATE ( 2021, 8, 10 ) ;
#121 =( NAMED_UNIT ( * ) PLANE_ANGLE_UNIT ( ) SI_UNIT ( $, .RADIAN. ) );
#122 = CIRCLE ( 'NONE', #37, 0.9749999999999985345 ) ;
#123 = DATE_AND_TIME ( #189, #80 ) ;
#124 = CARTESIAN_POINT ( 'NONE',  ( 0.0000000000000000000, 0.0000000000000000000, 0.0000000000000000000 ) ) ;
#125 = DIRECTION ( 'NONE',  ( 3.491481338843133355E-15, -1.224646799147353207E-16, 1.000000000000000000 ) ) ;
#126 = CARTESIAN_POINT ( 'NONE',  ( 1.965412498580366768E-15, -6.893739051711962862E-17, 0.5629165124598907166 ) ) ;
#127 = AXIS2_PLACEMENT_3D ( 'NONE', #9, #24, #215 ) ;
#128 = DIRECTION ( 'NONE',  ( -3.491481338843133355E-15, 1.224646799147353207E-16, -1.000000000000000000 ) ) ;
#129 = FACE_OUTER_BOUND ( 'NONE', #55, .T. ) ;
#130 = SECURITY_CLASSIFICATION ( '', '', #207 ) ;
#131 = DATE_AND_TIME ( #120, #139 ) ;
#132 = EDGE_CURVE ( 'NONE', #206, #206, #17, .T. ) ;
#133 = CARTESIAN_POINT ( 'NONE',  ( 0.0000000000000000000, 0.0000000000000000000, 0.0000000000000000000 ) ) ;
#134 = CC_DESIGN_SECURITY_CLASSIFICATION ( #130, ( #54 ) ) ;
#135 = ADVANCED_BREP_SHAPE_REPRESENTATION ( '52214', ( #158, #160, #172 ), #151 ) ;
#136 = PERSON_AND_ORGANIZATION ( #10, #169 ) ;
#137 = APPLICATION_CONTEXT ( 'configuration controlled 3d designs of mechanical parts and assemblies' ) ;
#138 = DIRECTION ( 'NONE',  ( 0.0000000000000000000, 0.0000000000000000000, 1.000000000000000000 ) ) ;
#139 = LOCAL_TIME ( 7, 54, 2.000000000000000000, #18 ) ;
#140 = CC_DESIGN_DATE_AND_TIME_ASSIGNMENT ( #131, #86, ( #53 ) ) ;
#141 = ORIENTED_EDGE ( 'NONE', *, *, #92, .T. ) ;
#142 = DIRECTION ( 'NONE',  ( -3.491481338843133355E-15, 1.224646799147353207E-16, -1.000000000000000000 ) ) ;
#143 = DIRECTION ( 'NONE',  ( -3.491481338843133355E-15, 1.224646799147353207E-16, -1.000000000000000000 ) ) ;
#144 = DIRECTION ( 'NONE',  ( -3.491481338843133355E-15, 1.224646799147353207E-16, -1.000000000000000000 ) ) ;
#145 = DIRECTION ( 'NONE',  ( 0.0000000000000000000, 1.000000000000000000, 0.0000000000000000000 ) ) ;
#146 = PERSON_AND_ORGANIZATION ( #10, #169 ) ;
#147 = AXIS2_PLACEMENT_3D ( 'NONE', #126, #74, #203 ) ;
#148 = PERSON_AND_ORGANIZATION_ROLE ( 'creator' ) ;
#149 = PERSON_AND_ORGANIZATION_ROLE ( 'design_supplier' ) ;
#150 =( NAMED_UNIT ( * ) SI_UNIT ( $, .STERADIAN. ) SOLID_ANGLE_UNIT ( ) );
#151 =( GEOMETRIC_REPRESENTATION_CONTEXT ( 3 ) GLOBAL_UNCERTAINTY_ASSIGNED_CONTEXT ( ( #98 ) ) GLOBAL_UNIT_ASSIGNED_CONTEXT ( ( #49, #121, #150 ) ) REPRESENTATION_CONTEXT ( 'NONE', 'WORKASPACE' ) );
#152 = DATE_AND_TIME ( #167, #214 ) ;
#153 = CIRCLE ( 'NONE', #45, 0.9750000000000008660 ) ;
#154 = ADVANCED_FACE ( 'NONE', ( #181, #6 ), #27, .T. ) ;
#155 = APPROVAL ( #99, 'UNSPECIFIED' ) ;
#156 = ORIENTED_EDGE ( 'NONE', *, *, #132, .T. ) ;
#157 = EDGE_LOOP ( 'NONE', ( #71 ) ) ;
#158 = MANIFOLD_SOLID_BREP ( 'Corps-Déplacer/Copier1[1]', #61 ) ;
#159 = CARTESIAN_POINT ( 'NONE',  ( 1.965412498580366768E-15, -6.893739051711962862E-17, 0.5629165124598907166 ) ) ;
#160 = MANIFOLD_SOLID_BREP ( 'Corps-Déplacer/Copier1[2]', #182 ) ;
#161 = DIRECTION ( 'NONE',  ( 4.275831445896958607E-31, 1.000000000000000000, 1.224646799147353207E-16 ) ) ;
#162 = DIRECTION ( 'NONE',  ( -3.491481338843133355E-15, 1.224646799147353207E-16, -1.000000000000000000 ) ) ;
#163 = CC_DESIGN_DATE_AND_TIME_ASSIGNMENT ( #152, #69, ( #130 ) ) ;
#164 = DIRECTION ( 'NONE',  ( -3.491481338843133355E-15, 1.224646799147353207E-16, -1.000000000000000000 ) ) ;
#165 = CARTESIAN_POINT ( 'NONE',  ( 1.326762908760390423E-13, 5.999039130647368167E-33, 38.00000000000000000 ) ) ;
#166 = APPROVAL_ROLE ( '' ) ;
#167 = CALENDAR_DATE ( 2021, 8, 10 ) ;
#168 = PERSON_AND_ORGANIZATION_ROLE ( 'creator' ) ;
#169 = ORGANIZATION ( 'UNSPECIFIED', 'UNSPECIFIED', '' ) ;
#170 = AXIS2_PLACEMENT_3D ( 'NONE', #40, #11, #77 ) ;
#171 = ORIENTED_EDGE ( 'NONE', *, *, #132, .F. ) ;
#172 = AXIS2_PLACEMENT_3D ( 'NONE', #133, #138, #50 ) ;
#173 = EDGE_LOOP ( 'NONE', ( #107 ) ) ;
#174 = FACE_BOUND ( 'NONE', #173, .T. ) ;
#175 = DIRECTION ( 'NONE',  ( 3.491481338843133355E-15, -1.224646799147353207E-16, 1.000000000000000000 ) ) ;
#176 = AXIS2_PLACEMENT_3D ( 'NONE', #91, #217, #216 ) ;
#177 = VERTEX_POINT ( 'NONE', #178 ) ;
#178 = CARTESIAN_POINT ( 'NONE',  ( 1.326762908760390423E-13, 0.7999999999999963807, 38.00000000000000000 ) ) ;
#179 = VERTEX_POINT ( 'NONE', #93 ) ;
#180 = CARTESIAN_POINT ( 'NONE',  ( 1.319779946082704535E-13, -4.629164900776995227E-15, 37.79999999999999716 ) ) ;
#181 = FACE_OUTER_BOUND ( 'NONE', #192, .T. ) ;
#182 = CLOSED_SHELL ( 'NONE', ( #113, #46, #56 ) ) ;
#183 = CC_DESIGN_PERSON_AND_ORGANIZATION_ASSIGNMENT ( #47, #187, ( #81 ) ) ;
#184 = DATE_AND_TIME ( #104, #7 ) ;
#185 = PERSON_AND_ORGANIZATION ( #10, #169 ) ;
#186 = APPROVAL_STATUS ( 'not_yet_approved' ) ;
#187 = PERSON_AND_ORGANIZATION_ROLE ( 'design_owner' ) ;
#188 = APPLICATION_CONTEXT ( 'configuration controlled 3d designs of mechanical parts and assemblies' ) ;
#189 = CALENDAR_DATE ( 2021, 8, 10 ) ;
#190 = CC_DESIGN_PERSON_AND_ORGANIZATION_ASSIGNMENT ( #65, #168, ( #53 ) ) ;
#191 = ORIENTED_EDGE ( 'NONE', *, *, #118, .F. ) ;
#192 = EDGE_LOOP ( 'NONE', ( #110 ) ) ;
#193 = AXIS2_PLACEMENT_3D ( 'NONE', #165, #142, #161 ) ;
#194 = APPROVAL_DATE_TIME ( #123, #15 ) ;
#195 = EDGE_LOOP ( 'NONE', ( #4 ) ) ;
#196 = EDGE_LOOP ( 'NONE', ( #156 ) ) ;
#197 = DIRECTION ( 'NONE',  ( -4.275831445896958607E-31, -1.000000000000000000, -1.224646799147353207E-16 ) ) ;
#198 = AXIS2_PLACEMENT_3D ( 'NONE', #60, #202, #30 ) ;
#199 = VERTEX_POINT ( 'NONE', #62 ) ;
#200 = EDGE_CURVE ( 'NONE', #84, #84, #64, .T. ) ;
#201 = AXIS2_PLACEMENT_3D ( 'NONE', #44, #125, #204 ) ;
#202 = DIRECTION ( 'NONE',  ( -3.491481338843133355E-15, 1.224646799147353207E-16, -1.000000000000000000 ) ) ;
#203 = DIRECTION ( 'NONE',  ( -3.950625526948182217E-31, -1.000000000000000000, -1.112002228190262677E-16 ) ) ;
#204 = DIRECTION ( 'NONE',  ( -4.275831445896958607E-31, -1.000000000000000000, -1.224646799147353207E-16 ) ) ;
#205 = CARTESIAN_POINT ( 'NONE',  ( 4.204896164293145655E-14, 0.9999999999999954481, 12.04330127018921814 ) ) ;
#206 = VERTEX_POINT ( 'NONE', #205 ) ;
#207 = SECURITY_CLASSIFICATION_LEVEL ( 'unclassified' ) ;
#208 = AXIS2_PLACEMENT_3D ( 'NONE', #112, #94, #197 ) ;
#209 = APPLICATION_PROTOCOL_DEFINITION ( 'international standard', 'config_control_design', 1994, #137 ) ;
#210 = ORIENTED_EDGE ( 'NONE', *, *, #108, .T. ) ;
#211 = EDGE_LOOP ( 'NONE', ( #36 ) ) ;
#212 = CIRCLE ( 'NONE', #73, 1.000000000000000888 ) ;
#213 = FACE_OUTER_BOUND ( 'NONE', #223, .T. ) ;
#214 = LOCAL_TIME ( 7, 54, 2.000000000000000000, #101 ) ;
#215 = DIRECTION ( 'NONE',  ( 0.0000000000000000000, 1.000000000000000000, 0.0000000000000000000 ) ) ;
#216 = DIRECTION ( 'NONE',  ( 0.0000000000000000000, 1.000000000000000000, 0.0000000000000000000 ) ) ;
#217 = DIRECTION ( 'NONE',  ( -3.491481338843133355E-15, 1.224646799147353207E-16, -1.000000000000000000 ) ) ;
#218 = MECHANICAL_CONTEXT ( 'NONE', #137, 'mechanical' ) ;
#219 = ADVANCED_FACE ( 'NONE', ( #114 ), #25, .F. ) ;
#220 = APPROVAL_PERSON_ORGANIZATION ( #88, #15, #109 ) ;
#221 = CARTESIAN_POINT ( 'NONE',  ( 4.189777606611760026E-14, 0.9749999999999993117, 12.00000000000000000 ) ) ;
#222 = ADVANCED_FACE ( 'NONE', ( #59 ), #79, .F. ) ;
#223 = EDGE_LOOP ( 'NONE', ( #52 ) ) ;
ENDSEC;
END-ISO-10303-21;
