ISO-10303-21;
HEADER;
FILE_DESCRIPTION (( 'STEP AP203' ),
    '1' );
FILE_NAME ('52213.step',
    '2021-10-08T05:54:01',
    ( '' ),
    ( '' ),
    'SwSTEP 2.0',
    'SolidWorks 2019',
    '' );
FILE_SCHEMA (( 'CONFIG_CONTROL_DESIGN' ));
ENDSEC;

DATA;
#1 = PERSON_AND_ORGANIZATION_ROLE ( 'design_owner' ) ;
#2 = ADVANCED_FACE ( 'NONE', ( #28 ), #215, .T. ) ;
#3 = CYLINDRICAL_SURFACE ( 'NONE', #40, 0.9999999999999988898 ) ;
#4 = CC_DESIGN_APPROVAL ( #189, ( #183 ) ) ;
#5 = APPROVAL_ROLE ( '' ) ;
#6 = CC_DESIGN_PERSON_AND_ORGANIZATION_ASSIGNMENT ( #197, #7, ( #219 ) ) ;
#7 = PERSON_AND_ORGANIZATION_ROLE ( 'creator' ) ;
#8 = PERSON_AND_ORGANIZATION_ROLE ( 'creator' ) ;
#9 = EDGE_LOOP ( 'NONE', ( #114 ) ) ;
#10 = CYLINDRICAL_SURFACE ( 'NONE', #198, 0.9249999999999989342 ) ;
#11 = DIRECTION ( 'NONE',  ( 0.0000000000000000000, 1.000000000000000000, 0.0000000000000000000 ) ) ;
#12 = CARTESIAN_POINT ( 'NONE',  ( 0.0000000000000000000, 0.0000000000000000000, 0.0000000000000000000 ) ) ;
#13 = PRODUCT_DEFINITION_FORMATION_WITH_SPECIFIED_SOURCE ( 'ANY', '', #47, .NOT_KNOWN. ) ;
#14 = FACE_BOUND ( 'NONE', #118, .T. ) ;
#15 = ADVANCED_FACE ( 'NONE', ( #201, #14 ), #109, .T. ) ;
#16 = VERTEX_POINT ( 'NONE', #120 ) ;
#17 = PERSON ( 'UNSPECIFIED', 'UNSPECIFIED', 'UNSPECIFIED', ('UNSPECIFIED'), ('UNSPECIFIED'), ('UNSPECIFIED') ) ;
#18 = PERSON_AND_ORGANIZATION ( #17, #130 ) ;
#19 = CONICAL_SURFACE ( 'NONE', #171, 0.9999999999999970024, 0.5235987755982968173 ) ;
#20 = CALENDAR_DATE ( 2021, 8, 10 ) ;
#21 = CALENDAR_DATE ( 2021, 8, 10 ) ;
#22 = EDGE_CURVE ( 'NONE', #142, #142, #75, .T. ) ;
#23 = DIRECTION ( 'NONE',  ( 0.0000000000000000000, 1.000000000000000000, 0.0000000000000000000 ) ) ;
#24 = DIRECTION ( 'NONE',  ( -3.491481338843133355E-15, 1.224646799147353207E-16, -1.000000000000000000 ) ) ;
#25 = PRODUCT_RELATED_PRODUCT_CATEGORY ( 'detail', '', ( #47 ) ) ;
#26 = ORIENTED_EDGE ( 'NONE', *, *, #22, .T. ) ;
#27 = ORIENTED_EDGE ( 'NONE', *, *, #55, .F. ) ;
#28 = FACE_OUTER_BOUND ( 'NONE', #204, .T. ) ;
#29 = CIRCLE ( 'NONE', #111, 0.9999999999999970024 ) ;
#30 = AXIS2_PLACEMENT_3D ( 'NONE', #83, #158, #33 ) ;
#31 = FACE_OUTER_BOUND ( 'NONE', #9, .T. ) ;
#32 = ADVANCED_FACE ( 'NONE', ( #58 ), #168, .T. ) ;
#33 = DIRECTION ( 'NONE',  ( 1.000000000000000000, 0.0000000000000000000, 0.0000000000000000000 ) ) ;
#34 = DATE_TIME_ROLE ( 'creation_date' ) ;
#35 = AXIS2_PLACEMENT_3D ( 'NONE', #78, #155, #23 ) ;
#36 = COORDINATED_UNIVERSAL_TIME_OFFSET ( 1, 0, .AHEAD. ) ;
#37 = DATE_AND_TIME ( #180, #80 ) ;
#38 = CC_DESIGN_DATE_AND_TIME_ASSIGNMENT ( #211, #72, ( #183 ) ) ;
#39 = DATE_AND_TIME ( #181, #206 ) ;
#40 = AXIS2_PLACEMENT_3D ( 'NONE', #66, #208, #121 ) ;
#41 = DIRECTION ( 'NONE',  ( 0.0000000000000000000, 1.000000000000000000, 0.0000000000000000000 ) ) ;
#42 = FACE_OUTER_BOUND ( 'NONE', #59, .T. ) ;
#43 = DIRECTION ( 'NONE',  ( -3.491481338843133355E-15, 1.224646799147353207E-16, -1.000000000000000000 ) ) ;
#44 = ORIENTED_EDGE ( 'NONE', *, *, #141, .F. ) ;
#45 = DIRECTION ( 'NONE',  ( 3.491481338843133355E-15, -1.224646799147353207E-16, 1.000000000000000000 ) ) ;
#46 = VERTEX_POINT ( 'NONE', #63 ) ;
#47 = PRODUCT ( '52213', '52213', '', ( #139 ) ) ;
#48 = CARTESIAN_POINT ( 'NONE',  ( 1.326762908760390423E-13, -4.653657836759941941E-15, 38.00000000000000000 ) ) ;
#49 = CLOSED_SHELL ( 'NONE', ( #2, #54, #32 ) ) ;
#50 = DESIGN_CONTEXT ( 'detailed design', #89, 'design' ) ;
#51 = APPROVAL_DATE_TIME ( #39, #133 ) ;
#52 = AXIS2_PLACEMENT_3D ( 'NONE', #154, #56, #95 ) ;
#53 = CC_DESIGN_APPROVAL ( #177, ( #219 ) ) ;
#54 = ADVANCED_FACE ( 'NONE', ( #81, #42 ), #10, .T. ) ;
#55 = EDGE_CURVE ( 'NONE', #176, #176, #29, .T. ) ;
#56 = DIRECTION ( 'NONE',  ( -3.491481338843133355E-15, 1.224646799147353207E-16, -1.000000000000000000 ) ) ;
#57 = DIRECTION ( 'NONE',  ( 0.0000000000000000000, 1.000000000000000000, 0.0000000000000000000 ) ) ;
#58 = FACE_OUTER_BOUND ( 'NONE', #135, .T. ) ;
#59 = EDGE_LOOP ( 'NONE', ( #190 ) ) ;
#60 = ORIENTED_EDGE ( 'NONE', *, *, #55, .T. ) ;
#61 =( NAMED_UNIT ( * ) PLANE_ANGLE_UNIT ( ) SI_UNIT ( $, .RADIAN. ) );
#62 = AXIS2_PLACEMENT_3D ( 'NONE', #150, #186, #99 ) ;
#63 = CARTESIAN_POINT ( 'NONE',  ( 4.189777606611760026E-14, 0.9249999999999978240, 12.00000000000000000 ) ) ;
#64 = PERSON_AND_ORGANIZATION ( #17, #130 ) ;
#65 = ADVANCED_BREP_SHAPE_REPRESENTATION ( '52213', ( #85, #86, #30 ), #196 ) ;
#66 = CARTESIAN_POINT ( 'NONE',  ( 0.0000000000000000000, 0.0000000000000000000, 0.0000000000000000000 ) ) ;
#67 = APPROVAL_ROLE ( '' ) ;
#68 = LOCAL_TIME ( 7, 54, 1.000000000000000000, #119 ) ;
#69 = PERSON_AND_ORGANIZATION ( #17, #130 ) ;
#70 = APPROVAL_DATE_TIME ( #37, #189 ) ;
#71 = SECURITY_CLASSIFICATION_LEVEL ( 'unclassified' ) ;
#72 = DATE_TIME_ROLE ( 'classification_date' ) ;
#73 = EDGE_LOOP ( 'NONE', ( #74 ) ) ;
#74 = ORIENTED_EDGE ( 'NONE', *, *, #94, .T. ) ;
#75 = CIRCLE ( 'NONE', #182, 1.000000000000000888 ) ;
#76 = EDGE_LOOP ( 'NONE', ( #27 ) ) ;
#77 = PLANE ( 'NONE',  #62 ) ;
#78 = CARTESIAN_POINT ( 'NONE',  ( 4.189777606611760026E-14, -1.469576158976823947E-15, 12.00000000000000000 ) ) ;
#79 = CC_DESIGN_PERSON_AND_ORGANIZATION_ASSIGNMENT ( #110, #145, ( #183 ) ) ;
#80 = LOCAL_TIME ( 7, 54, 1.000000000000000000, #148 ) ;
#81 = FACE_OUTER_BOUND ( 'NONE', #131, .T. ) ;
#82 = CARTESIAN_POINT ( 'NONE',  ( 4.235133279655920698E-14, -1.485484787557697047E-15, 12.12990381056766331 ) ) ;
#83 = CARTESIAN_POINT ( 'NONE',  ( 0.0000000000000000000, 0.0000000000000000000, 0.0000000000000000000 ) ) ;
#84 = FACE_BOUND ( 'NONE', #87, .T. ) ;
#85 = MANIFOLD_SOLID_BREP ( 'Corps-Déplacer/Copier1[1]', #149 ) ;
#86 = MANIFOLD_SOLID_BREP ( 'Corps-Déplacer/Copier1[2]', #49 ) ;
#87 = EDGE_LOOP ( 'NONE', ( #220 ) ) ;
#88 = CC_DESIGN_PERSON_AND_ORGANIZATION_ASSIGNMENT ( #64, #1, ( #47 ) ) ;
#89 = APPLICATION_CONTEXT ( 'configuration controlled 3d designs of mechanical parts and assemblies' ) ;
#90 = COORDINATED_UNIVERSAL_TIME_OFFSET ( 1, 0, .AHEAD. ) ;
#91 = AXIS2_PLACEMENT_3D ( 'NONE', #113, #217, #205 ) ;
#92 = PERSON_AND_ORGANIZATION ( #17, #130 ) ;
#93 = UNCERTAINTY_MEASURE_WITH_UNIT (LENGTH_MEASURE( 1.000000000000000082E-05 ), #122, 'distance_accuracy_value', 'NONE');
#94 = EDGE_CURVE ( 'NONE', #140, #140, #97, .T. ) ;
#95 = DIRECTION ( 'NONE',  ( 4.164172852729164566E-31, 1.000000000000000000, 1.172110456741087554E-16 ) ) ;
#96 = CARTESIAN_POINT ( 'NONE',  ( 4.189777606611760026E-14, -1.469576158976823947E-15, 12.00000000000000000 ) ) ;
#97 = CIRCLE ( 'NONE', #102, 0.9249999999999993783 ) ;
#98 = CIRCLE ( 'NONE', #160, 0.8000000000000010436 ) ;
#99 = DIRECTION ( 'NONE',  ( -4.275831445896958607E-31, -1.000000000000000000, -1.224646799147353207E-16 ) ) ;
#100 = EDGE_CURVE ( 'NONE', #46, #46, #129, .T. ) ;
#101 = CARTESIAN_POINT ( 'NONE',  ( 1.864622114037783685E-15, -6.540213972136991261E-17, 0.5340489990004091414 ) ) ;
#102 = AXIS2_PLACEMENT_3D ( 'NONE', #96, #170, #57 ) ;
#103 = LOCAL_TIME ( 7, 54, 1.000000000000000000, #36 ) ;
#104 = CARTESIAN_POINT ( 'NONE',  ( 1.326762908760390423E-13, 5.999039130647368167E-33, 38.00000000000000000 ) ) ;
#105 = FACE_OUTER_BOUND ( 'NONE', #221, .T. ) ;
#106 = APPLICATION_PROTOCOL_DEFINITION ( 'international standard', 'config_control_design', 1994, #179 ) ;
#107 = APPLICATION_PROTOCOL_DEFINITION ( 'international standard', 'config_control_design', 1994, #89 ) ;
#108 = DATE_AND_TIME ( #21, #187 ) ;
#109 = CONICAL_SURFACE ( 'NONE', #91, 0.8000000000000010436, 0.7853981633974510546 ) ;
#110 = PERSON_AND_ORGANIZATION ( #17, #130 ) ;
#111 = AXIS2_PLACEMENT_3D ( 'NONE', #188, #136, #11 ) ;
#112 = ORIENTED_EDGE ( 'NONE', *, *, #22, .F. ) ;
#113 = CARTESIAN_POINT ( 'NONE',  ( 1.326762908760390423E-13, -4.653657836759941941E-15, 38.00000000000000000 ) ) ;
#114 = ORIENTED_EDGE ( 'NONE', *, *, #203, .F. ) ;
#115 = FACE_OUTER_BOUND ( 'NONE', #73, .T. ) ;
#116 = ADVANCED_FACE ( 'NONE', ( #115 ), #77, .F. ) ;
#117 = ORIENTED_EDGE ( 'NONE', *, *, #100, .F. ) ;
#118 = EDGE_LOOP ( 'NONE', ( #172 ) ) ;
#119 = COORDINATED_UNIVERSAL_TIME_OFFSET ( 1, 0, .AHEAD. ) ;
#120 = CARTESIAN_POINT ( 'NONE',  ( 1.326762908760390423E-13, 0.7999999999999963807, 38.00000000000000000 ) ) ;
#121 = DIRECTION ( 'NONE',  ( 4.275831445896957731E-31, 1.000000000000000000, 1.224646799147353454E-16 ) ) ;
#122 =( LENGTH_UNIT ( ) NAMED_UNIT ( * ) SI_UNIT ( .MILLI., .METRE. ) );
#123 = CC_DESIGN_DATE_AND_TIME_ASSIGNMENT ( #108, #34, ( #219 ) ) ;
#124 = CC_DESIGN_SECURITY_CLASSIFICATION ( #183, ( #13 ) ) ;
#125 = PLANE ( 'NONE',  #212 ) ;
#126 = CC_DESIGN_PERSON_AND_ORGANIZATION_ASSIGNMENT ( #69, #147, ( #13 ) ) ;
#127 = CIRCLE ( 'NONE', #52, 0.9249999999999986011 ) ;
#128 = APPROVAL_ROLE ( '' ) ;
#129 = CIRCLE ( 'NONE', #35, 0.9249999999999993783 ) ;
#130 = ORGANIZATION ( 'UNSPECIFIED', 'UNSPECIFIED', '' ) ;
#131 = EDGE_LOOP ( 'NONE', ( #44 ) ) ;
#132 = EDGE_LOOP ( 'NONE', ( #112 ) ) ;
#133 = APPROVAL ( #167, 'UNSPECIFIED' ) ;
#134 = CARTESIAN_POINT ( 'NONE',  ( 1.319779946082704535E-13, -4.629164900776995227E-15, 37.79999999999999716 ) ) ;
#135 = EDGE_LOOP ( 'NONE', ( #117 ) ) ;
#136 = DIRECTION ( 'NONE',  ( -3.491481338843133355E-15, 1.224646799147353207E-16, -1.000000000000000000 ) ) ;
#137 =( NAMED_UNIT ( * ) SI_UNIT ( $, .STERADIAN. ) SOLID_ANGLE_UNIT ( ) );
#138 = APPROVAL_PERSON_ORGANIZATION ( #195, #189, #128 ) ;
#139 = MECHANICAL_CONTEXT ( 'NONE', #179, 'mechanical' ) ;
#140 = VERTEX_POINT ( 'NONE', #178 ) ;
#141 = EDGE_CURVE ( 'NONE', #209, #209, #127, .T. ) ;
#142 = VERTEX_POINT ( 'NONE', #162 ) ;
#143 = FACE_OUTER_BOUND ( 'NONE', #76, .T. ) ;
#144 = CC_DESIGN_PERSON_AND_ORGANIZATION_ASSIGNMENT ( #146, #8, ( #13 ) ) ;
#145 = PERSON_AND_ORGANIZATION_ROLE ( 'classification_officer' ) ;
#146 = PERSON_AND_ORGANIZATION ( #17, #130 ) ;
#147 = PERSON_AND_ORGANIZATION_ROLE ( 'design_supplier' ) ;
#148 = COORDINATED_UNIVERSAL_TIME_OFFSET ( 1, 0, .AHEAD. ) ;
#149 = CLOSED_SHELL ( 'NONE', ( #116, #169, #166, #15, #184 ) ) ;
#150 = CARTESIAN_POINT ( 'NONE',  ( 4.189777606611760026E-14, 6.936388994811065436E-33, 12.00000000000000000 ) ) ;
#151 = CC_DESIGN_APPROVAL ( #133, ( #13 ) ) ;
#152 = DIRECTION ( 'NONE',  ( 4.275831445896958607E-31, 1.000000000000000000, 1.224646799147353454E-16 ) ) ;
#153 = PRODUCT_DEFINITION_SHAPE ( 'NONE', 'NONE',  #219 ) ;
#154 = CARTESIAN_POINT ( 'NONE',  ( 1.864622114037783685E-15, -6.540213972136991261E-17, 0.5340489990004091414 ) ) ;
#155 = DIRECTION ( 'NONE',  ( -3.491481338843133355E-15, 1.224646799147353207E-16, -1.000000000000000000 ) ) ;
#156 = APPROVAL_PERSON_ORGANIZATION ( #18, #177, #67 ) ;
#157 = DIRECTION ( 'NONE',  ( -3.491481338843133355E-15, 1.224646799147353207E-16, -1.000000000000000000 ) ) ;
#158 = DIRECTION ( 'NONE',  ( 0.0000000000000000000, 0.0000000000000000000, 1.000000000000000000 ) ) ;
#159 = AXIS2_PLACEMENT_3D ( 'NONE', #173, #174, #216 ) ;
#160 = AXIS2_PLACEMENT_3D ( 'NONE', #48, #192, #161 ) ;
#161 = DIRECTION ( 'NONE',  ( 0.0000000000000000000, 1.000000000000000000, 0.0000000000000000000 ) ) ;
#162 = CARTESIAN_POINT ( 'NONE',  ( 1.319779946082704535E-13, 0.9999999999999963363, 37.79999999999999716 ) ) ;
#163 = APPROVAL_STATUS ( 'not_yet_approved' ) ;
#164 = APPROVAL_DATE_TIME ( #214, #177 ) ;
#165 = COORDINATED_UNIVERSAL_TIME_OFFSET ( 1, 0, .AHEAD. ) ;
#166 = ADVANCED_FACE ( 'NONE', ( #143, #223 ), #3, .T. ) ;
#167 = APPROVAL_STATUS ( 'not_yet_approved' ) ;
#168 = PLANE ( 'NONE',  #159 ) ;
#169 = ADVANCED_FACE ( 'NONE', ( #84, #105 ), #19, .T. ) ;
#170 = DIRECTION ( 'NONE',  ( -3.491481338843133355E-15, 1.224646799147353207E-16, -1.000000000000000000 ) ) ;
#171 = AXIS2_PLACEMENT_3D ( 'NONE', #82, #45, #207 ) ;
#172 = ORIENTED_EDGE ( 'NONE', *, *, #203, .T. ) ;
#173 = CARTESIAN_POINT ( 'NONE',  ( 4.189777606611760026E-14, 6.936388994811065436E-33, 12.00000000000000000 ) ) ;
#174 = DIRECTION ( 'NONE',  ( 3.491481338843133355E-15, -1.224646799147353207E-16, 1.000000000000000000 ) ) ;
#175 = CARTESIAN_POINT ( 'NONE',  ( 1.864622114037784079E-15, 0.9249999999999984901, 0.5340489990004092524 ) ) ;
#176 = VERTEX_POINT ( 'NONE', #222 ) ;
#177 = APPROVAL ( #163, 'UNSPECIFIED' ) ;
#178 = CARTESIAN_POINT ( 'NONE',  ( 4.189777606611760026E-14, 0.9249999999999978240, 12.00000000000000000 ) ) ;
#179 = APPLICATION_CONTEXT ( 'configuration controlled 3d designs of mechanical parts and assemblies' ) ;
#180 = CALENDAR_DATE ( 2021, 8, 10 ) ;
#181 = CALENDAR_DATE ( 2021, 8, 10 ) ;
#182 = AXIS2_PLACEMENT_3D ( 'NONE', #134, #43, #41 ) ;
#183 = SECURITY_CLASSIFICATION ( '', '', #71 ) ;
#184 = ADVANCED_FACE ( 'NONE', ( #31 ), #125, .F. ) ;
#185 = DIRECTION ( 'NONE',  ( -4.164172852729164566E-31, -1.000000000000000000, -1.172110456741087554E-16 ) ) ;
#186 = DIRECTION ( 'NONE',  ( 3.491481338843133355E-15, -1.224646799147353207E-16, 1.000000000000000000 ) ) ;
#187 = LOCAL_TIME ( 7, 54, 1.000000000000000000, #90 ) ;
#188 = CARTESIAN_POINT ( 'NONE',  ( 4.235133279655920698E-14, -1.485484787557697047E-15, 12.12990381056766331 ) ) ;
#189 = APPROVAL ( #210, 'UNSPECIFIED' ) ;
#190 = ORIENTED_EDGE ( 'NONE', *, *, #100, .T. ) ;
#191 = CALENDAR_DATE ( 2021, 8, 10 ) ;
#192 = DIRECTION ( 'NONE',  ( -3.491481338843133355E-15, 1.224646799147353207E-16, -1.000000000000000000 ) ) ;
#193 = AXIS2_PLACEMENT_3D ( 'NONE', #101, #218, #185 ) ;
#194 = DIRECTION ( 'NONE',  ( 4.275831445896958607E-31, 1.000000000000000000, 1.224646799147353207E-16 ) ) ;
#195 = PERSON_AND_ORGANIZATION ( #17, #130 ) ;
#196 =( GEOMETRIC_REPRESENTATION_CONTEXT ( 3 ) GLOBAL_UNCERTAINTY_ASSIGNED_CONTEXT ( ( #93 ) ) GLOBAL_UNIT_ASSIGNED_CONTEXT ( ( #122, #61, #137 ) ) REPRESENTATION_CONTEXT ( 'NONE', 'WORKASPACE' ) );
#197 = PERSON_AND_ORGANIZATION ( #17, #130 ) ;
#198 = AXIS2_PLACEMENT_3D ( 'NONE', #12, #24, #152 ) ;
#199 = APPROVAL_PERSON_ORGANIZATION ( #92, #133, #5 ) ;
#200 = EDGE_LOOP ( 'NONE', ( #26 ) ) ;
#201 = FACE_OUTER_BOUND ( 'NONE', #132, .T. ) ;
#202 = ORIENTED_EDGE ( 'NONE', *, *, #141, .T. ) ;
#203 = EDGE_CURVE ( 'NONE', #16, #16, #98, .T. ) ;
#204 = EDGE_LOOP ( 'NONE', ( #202 ) ) ;
#205 = DIRECTION ( 'NONE',  ( 0.0000000000000000000, 1.000000000000000000, 0.0000000000000000000 ) ) ;
#206 = LOCAL_TIME ( 7, 54, 1.000000000000000000, #165 ) ;
#207 = DIRECTION ( 'NONE',  ( 0.0000000000000000000, -1.000000000000000000, 0.0000000000000000000 ) ) ;
#208 = DIRECTION ( 'NONE',  ( -3.491481338843133355E-15, 1.224646799147353207E-16, -1.000000000000000000 ) ) ;
#209 = VERTEX_POINT ( 'NONE', #175 ) ;
#210 = APPROVAL_STATUS ( 'not_yet_approved' ) ;
#211 = DATE_AND_TIME ( #20, #103 ) ;
#212 = AXIS2_PLACEMENT_3D ( 'NONE', #104, #157, #194 ) ;
#213 = SHAPE_DEFINITION_REPRESENTATION ( #153, #65 ) ;
#214 = DATE_AND_TIME ( #191, #68 ) ;
#215 = CONICAL_SURFACE ( 'NONE', #193, 0.9249999999999986011, 1.047197551196592746 ) ;
#216 = DIRECTION ( 'NONE',  ( -4.275831445896958607E-31, -1.000000000000000000, -1.224646799147353207E-16 ) ) ;
#217 = DIRECTION ( 'NONE',  ( -3.491481338843133355E-15, 1.224646799147353207E-16, -1.000000000000000000 ) ) ;
#218 = DIRECTION ( 'NONE',  ( 3.491481338843133355E-15, -1.224646799147353207E-16, 1.000000000000000000 ) ) ;
#219 = PRODUCT_DEFINITION ( 'UNKNOWN', '', #13, #50 ) ;
#220 = ORIENTED_EDGE ( 'NONE', *, *, #94, .F. ) ;
#221 = EDGE_LOOP ( 'NONE', ( #60 ) ) ;
#222 = CARTESIAN_POINT ( 'NONE',  ( 4.235133279655920698E-14, 0.9999999999999954481, 12.12990381056766331 ) ) ;
#223 = FACE_OUTER_BOUND ( 'NONE', #200, .T. ) ;
ENDSEC;
END-ISO-10303-21;
