ISO-10303-21;
HEADER;
FILE_DESCRIPTION (( 'STEP AP203' ),
    '1' );
FILE_NAME ('52212.step',
    '2021-10-08T05:54:00',
    ( '' ),
    ( '' ),
    'SwSTEP 2.0',
    'SolidWorks 2019',
    '' );
FILE_SCHEMA (( 'CONFIG_CONTROL_DESIGN' ));
ENDSEC;

DATA;
#1 = DIRECTION ( 'NONE',  ( 0.0000000000000000000, 1.000000000000000000, 0.0000000000000000000 ) ) ;
#2 = AXIS2_PLACEMENT_3D ( 'NONE', #187, #40, #1 ) ;
#3 = CARTESIAN_POINT ( 'NONE',  ( 4.189777606611760026E-14, 0.8749999999999973355, 12.00000000000000000 ) ) ;
#4 = CARTESIAN_POINT ( 'NONE',  ( 1.763831729495200602E-15, 0.8749999999999984457, 0.5051814855409274552 ) ) ;
#5 = DIRECTION ( 'NONE',  ( 0.0000000000000000000, 1.000000000000000000, 0.0000000000000000000 ) ) ;
#6 = CC_DESIGN_APPROVAL ( #18, ( #207 ) ) ;
#7 = CARTESIAN_POINT ( 'NONE',  ( 4.265370395018695741E-14, -1.496090539944946109E-15, 12.21650635094610671 ) ) ;
#8 = MANIFOLD_SOLID_BREP ( 'Corps-Déplacer/Copier1[1]', #64 ) ;
#9 = VERTEX_POINT ( 'NONE', #26 ) ;
#10 = PRODUCT_DEFINITION ( 'UNKNOWN', '', #207, #88 ) ;
#11 = AXIS2_PLACEMENT_3D ( 'NONE', #70, #202, #131 ) ;
#12 = LOCAL_TIME ( 7, 54, 0.0000000000000000000, #15 ) ;
#13 = APPROVAL_ROLE ( '' ) ;
#14 = MANIFOLD_SOLID_BREP ( 'Corps-Déplacer/Copier1[2]', #141 ) ;
#15 = COORDINATED_UNIVERSAL_TIME_OFFSET ( 1, 0, .AHEAD. ) ;
#16 = APPROVAL_DATE_TIME ( #167, #35 ) ;
#17 = CALENDAR_DATE ( 2021, 8, 10 ) ;
#18 = APPROVAL ( #31, 'UNSPECIFIED' ) ;
#19 = DIRECTION ( 'NONE',  ( 4.402125587170831939E-31, 1.000000000000000000, 1.239088197126292789E-16 ) ) ;
#20 = APPLICATION_CONTEXT ( 'configuration controlled 3d designs of mechanical parts and assemblies' ) ;
#21 = ORIENTED_EDGE ( 'NONE', *, *, #67, .T. ) ;
#22 = EDGE_CURVE ( 'NONE', #92, #92, #162, .T. ) ;
#23 = FACE_OUTER_BOUND ( 'NONE', #53, .T. ) ;
#24 = FACE_OUTER_BOUND ( 'NONE', #223, .T. ) ;
#25 = PRODUCT_RELATED_PRODUCT_CATEGORY ( 'detail', '', ( #108 ) ) ;
#26 = CARTESIAN_POINT ( 'NONE',  ( 4.189777606611760026E-14, 0.8749999999999973355, 12.00000000000000000 ) ) ;
#27 = CYLINDRICAL_SURFACE ( 'NONE', #157, 0.8749999999999986677 ) ;
#28 = CONICAL_SURFACE ( 'NONE', #52, 0.9999999999999970024, 0.5235987755982973724 ) ;
#29 = CARTESIAN_POINT ( 'NONE',  ( 1.319779946082704535E-13, 0.9999999999999963363, 37.79999999999999716 ) ) ;
#30 = COORDINATED_UNIVERSAL_TIME_OFFSET ( 1, 0, .AHEAD. ) ;
#31 = APPROVAL_STATUS ( 'not_yet_approved' ) ;
#32 = COORDINATED_UNIVERSAL_TIME_OFFSET ( 1, 0, .AHEAD. ) ;
#33 = PERSON ( 'UNSPECIFIED', 'UNSPECIFIED', 'UNSPECIFIED', ('UNSPECIFIED'), ('UNSPECIFIED'), ('UNSPECIFIED') ) ;
#34 = CALENDAR_DATE ( 2021, 8, 10 ) ;
#35 = APPROVAL ( #49, 'UNSPECIFIED' ) ;
#36 = CC_DESIGN_APPROVAL ( #35, ( #107 ) ) ;
#37 = CC_DESIGN_PERSON_AND_ORGANIZATION_ASSIGNMENT ( #133, #100, ( #10 ) ) ;
#38 = ORIENTED_EDGE ( 'NONE', *, *, #89, .T. ) ;
#39 = LOCAL_TIME ( 7, 54, 0.0000000000000000000, #147 ) ;
#40 = DIRECTION ( 'NONE',  ( -3.491481338843133355E-15, 1.224646799147353207E-16, -1.000000000000000000 ) ) ;
#41 = EDGE_LOOP ( 'NONE', ( #109 ) ) ;
#42 = VERTEX_POINT ( 'NONE', #44 ) ;
#43 = CC_DESIGN_PERSON_AND_ORGANIZATION_ASSIGNMENT ( #149, #115, ( #107 ) ) ;
#44 = CARTESIAN_POINT ( 'NONE',  ( 4.265370395018695741E-14, 0.9999999999999954481, 12.21650635094610671 ) ) ;
#45 = FACE_OUTER_BOUND ( 'NONE', #124, .T. ) ;
#46 = DIRECTION ( 'NONE',  ( 4.275831445896958607E-31, 1.000000000000000000, 1.224646799147353454E-16 ) ) ;
#47 = APPLICATION_PROTOCOL_DEFINITION ( 'international standard', 'config_control_design', 1994, #101 ) ;
#48 = PERSON_AND_ORGANIZATION ( #33, #178 ) ;
#49 = APPROVAL_STATUS ( 'not_yet_approved' ) ;
#50 = CC_DESIGN_PERSON_AND_ORGANIZATION_ASSIGNMENT ( #118, #98, ( #108 ) ) ;
#51 = DIRECTION ( 'NONE',  ( 4.275831445896958607E-31, 1.000000000000000000, 1.224646799147353207E-16 ) ) ;
#52 = AXIS2_PLACEMENT_3D ( 'NONE', #7, #129, #77 ) ;
#53 = EDGE_LOOP ( 'NONE', ( #38 ) ) ;
#54 = DIRECTION ( 'NONE',  ( -4.275831445896958607E-31, -1.000000000000000000, -1.224646799147353207E-16 ) ) ;
#55 = FACE_OUTER_BOUND ( 'NONE', #155, .T. ) ;
#56 = AXIS2_PLACEMENT_3D ( 'NONE', #206, #161, #54 ) ;
#57 = CARTESIAN_POINT ( 'NONE',  ( 0.0000000000000000000, 0.0000000000000000000, 0.0000000000000000000 ) ) ;
#58 = DIRECTION ( 'NONE',  ( 0.0000000000000000000, 1.000000000000000000, 0.0000000000000000000 ) ) ;
#59 = ADVANCED_FACE ( 'NONE', ( #153 ), #138, .F. ) ;
#60 = DIRECTION ( 'NONE',  ( 3.491481338843133355E-15, -1.224646799147353207E-16, 1.000000000000000000 ) ) ;
#61 = DATE_AND_TIME ( #17, #39 ) ;
#62 = CC_DESIGN_DATE_AND_TIME_ASSIGNMENT ( #63, #135, ( #107 ) ) ;
#63 = DATE_AND_TIME ( #216, #182 ) ;
#64 = CLOSED_SHELL ( 'NONE', ( #145, #214, #169, #106, #59 ) ) ;
#65 = AXIS2_PLACEMENT_3D ( 'NONE', #139, #69, #19 ) ;
#66 =( GEOMETRIC_REPRESENTATION_CONTEXT ( 3 ) GLOBAL_UNCERTAINTY_ASSIGNED_CONTEXT ( ( #91 ) ) GLOBAL_UNIT_ASSIGNED_CONTEXT ( ( #113, #136, #117 ) ) REPRESENTATION_CONTEXT ( 'NONE', 'WORKASPACE' ) );
#67 = EDGE_CURVE ( 'NONE', #42, #42, #95, .T. ) ;
#68 = ORIENTED_EDGE ( 'NONE', *, *, #22, .F. ) ;
#69 = DIRECTION ( 'NONE',  ( -3.491481338843133355E-15, 1.224646799147353207E-16, -1.000000000000000000 ) ) ;
#70 = CARTESIAN_POINT ( 'NONE',  ( 4.189777606611760026E-14, -1.469576158976823947E-15, 12.00000000000000000 ) ) ;
#71 = CIRCLE ( 'NONE', #172, 1.000000000000000888 ) ;
#72 = EDGE_LOOP ( 'NONE', ( #171 ) ) ;
#73 = CARTESIAN_POINT ( 'NONE',  ( 1.326762908760390423E-13, 0.7999999999999963807, 38.00000000000000000 ) ) ;
#74 = DIRECTION ( 'NONE',  ( -3.491481338843133355E-15, 1.224646799147353207E-16, -1.000000000000000000 ) ) ;
#75 = FACE_OUTER_BOUND ( 'NONE', #204, .T. ) ;
#76 = LOCAL_TIME ( 7, 54, 0.0000000000000000000, #30 ) ;
#77 = DIRECTION ( 'NONE',  ( 0.0000000000000000000, -1.000000000000000000, 0.0000000000000000000 ) ) ;
#78 = DIRECTION ( 'NONE',  ( 0.0000000000000000000, 1.000000000000000000, 0.0000000000000000000 ) ) ;
#79 = AXIS2_PLACEMENT_3D ( 'NONE', #94, #144, #128 ) ;
#80 = DIRECTION ( 'NONE',  ( 0.0000000000000000000, 0.0000000000000000000, 1.000000000000000000 ) ) ;
#81 = CC_DESIGN_PERSON_AND_ORGANIZATION_ASSIGNMENT ( #217, #102, ( #207 ) ) ;
#82 = SHAPE_DEFINITION_REPRESENTATION ( #173, #150 ) ;
#83 = CIRCLE ( 'NONE', #11, 0.8749999999999987788 ) ;
#84 = CC_DESIGN_APPROVAL ( #116, ( #10 ) ) ;
#85 = PERSON_AND_ORGANIZATION ( #33, #178 ) ;
#86 = EDGE_LOOP ( 'NONE', ( #140 ) ) ;
#87 = EDGE_LOOP ( 'NONE', ( #174 ) ) ;
#88 = DESIGN_CONTEXT ( 'detailed design', #20, 'design' ) ;
#89 = EDGE_CURVE ( 'NONE', #114, #114, #83, .T. ) ;
#90 = AXIS2_PLACEMENT_3D ( 'NONE', #189, #60, #191 ) ;
#91 = UNCERTAINTY_MEASURE_WITH_UNIT (LENGTH_MEASURE( 1.000000000000000082E-05 ), #113, 'distance_accuracy_value', 'NONE');
#92 = VERTEX_POINT ( 'NONE', #4 ) ;
#93 = FACE_OUTER_BOUND ( 'NONE', #72, .T. ) ;
#94 = CARTESIAN_POINT ( 'NONE',  ( 0.0000000000000000000, 0.0000000000000000000, 0.0000000000000000000 ) ) ;
#95 = CIRCLE ( 'NONE', #2, 0.9999999999999970024 ) ;
#96 = PLANE ( 'NONE',  #56 ) ;
#97 = CARTESIAN_POINT ( 'NONE',  ( 1.326762908760390423E-13, -4.653657836759941941E-15, 38.00000000000000000 ) ) ;
#98 = PERSON_AND_ORGANIZATION_ROLE ( 'design_owner' ) ;
#99 = CC_DESIGN_DATE_AND_TIME_ASSIGNMENT ( #180, #151, ( #10 ) ) ;
#100 = PERSON_AND_ORGANIZATION_ROLE ( 'creator' ) ;
#101 = APPLICATION_CONTEXT ( 'configuration controlled 3d designs of mechanical parts and assemblies' ) ;
#102 = PERSON_AND_ORGANIZATION_ROLE ( 'design_supplier' ) ;
#103 = CONICAL_SURFACE ( 'NONE', #212, 0.8000000000000010436, 0.7853981633974510546 ) ;
#104 = EDGE_CURVE ( 'NONE', #112, #112, #201, .T. ) ;
#105 = ORIENTED_EDGE ( 'NONE', *, *, #132, .F. ) ;
#106 = ADVANCED_FACE ( 'NONE', ( #158, #177 ), #103, .T. ) ;
#107 = SECURITY_CLASSIFICATION ( '', '', #183 ) ;
#108 = PRODUCT ( '52212', '52212', '', ( #148 ) ) ;
#109 = ORIENTED_EDGE ( 'NONE', *, *, #104, .T. ) ;
#110 = CC_DESIGN_SECURITY_CLASSIFICATION ( #107, ( #207 ) ) ;
#111 = DIRECTION ( 'NONE',  ( 0.0000000000000000000, 1.000000000000000000, 0.0000000000000000000 ) ) ;
#112 = VERTEX_POINT ( 'NONE', #73 ) ;
#113 =( LENGTH_UNIT ( ) NAMED_UNIT ( * ) SI_UNIT ( .MILLI., .METRE. ) );
#114 = VERTEX_POINT ( 'NONE', #3 ) ;
#115 = PERSON_AND_ORGANIZATION_ROLE ( 'classification_officer' ) ;
#116 = APPROVAL ( #137, 'UNSPECIFIED' ) ;
#117 =( NAMED_UNIT ( * ) SI_UNIT ( $, .STERADIAN. ) SOLID_ANGLE_UNIT ( ) );
#118 = PERSON_AND_ORGANIZATION ( #33, #178 ) ;
#119 = APPROVAL_ROLE ( '' ) ;
#120 = CONICAL_SURFACE ( 'NONE', #123, 0.8749999999999985567, 1.047197551196592968 ) ;
#121 = ORIENTED_EDGE ( 'NONE', *, *, #181, .T. ) ;
#122 = ORIENTED_EDGE ( 'NONE', *, *, #104, .F. ) ;
#123 = AXIS2_PLACEMENT_3D ( 'NONE', #164, #160, #211 ) ;
#124 = EDGE_LOOP ( 'NONE', ( #68 ) ) ;
#125 = EDGE_LOOP ( 'NONE', ( #122 ) ) ;
#126 = DIRECTION ( 'NONE',  ( -3.491481338843133355E-15, 1.224646799147353207E-16, -1.000000000000000000 ) ) ;
#127 = AXIS2_PLACEMENT_3D ( 'NONE', #163, #190, #5 ) ;
#128 = DIRECTION ( 'NONE',  ( 4.275831445896957731E-31, 1.000000000000000000, 1.224646799147353454E-16 ) ) ;
#129 = DIRECTION ( 'NONE',  ( 3.491481338843133355E-15, -1.224646799147353207E-16, 1.000000000000000000 ) ) ;
#130 = CYLINDRICAL_SURFACE ( 'NONE', #79, 0.9999999999999988898 ) ;
#131 = DIRECTION ( 'NONE',  ( 0.0000000000000000000, 1.000000000000000000, 0.0000000000000000000 ) ) ;
#132 = EDGE_CURVE ( 'NONE', #179, #179, #71, .T. ) ;
#133 = PERSON_AND_ORGANIZATION ( #33, #178 ) ;
#134 = DATE_AND_TIME ( #185, #12 ) ;
#135 = DATE_TIME_ROLE ( 'classification_date' ) ;
#136 =( NAMED_UNIT ( * ) PLANE_ANGLE_UNIT ( ) SI_UNIT ( $, .RADIAN. ) );
#137 = APPROVAL_STATUS ( 'not_yet_approved' ) ;
#138 = PLANE ( 'NONE',  #186 ) ;
#139 = CARTESIAN_POINT ( 'NONE',  ( 1.763831729495200207E-15, -6.186688892562015962E-17, 0.5051814855409273441 ) ) ;
#140 = ORIENTED_EDGE ( 'NONE', *, *, #67, .F. ) ;
#141 = CLOSED_SHELL ( 'NONE', ( #222, #142, #209 ) ) ;
#142 = ADVANCED_FACE ( 'NONE', ( #45, #175 ), #27, .T. ) ;
#143 = CARTESIAN_POINT ( 'NONE',  ( 1.326762908760390423E-13, -4.653657836759941941E-15, 38.00000000000000000 ) ) ;
#144 = DIRECTION ( 'NONE',  ( -3.491481338843133355E-15, 1.224646799147353207E-16, -1.000000000000000000 ) ) ;
#145 = ADVANCED_FACE ( 'NONE', ( #23 ), #96, .F. ) ;
#146 = DIRECTION ( 'NONE',  ( -3.491481338843133355E-15, 1.224646799147353207E-16, -1.000000000000000000 ) ) ;
#147 = COORDINATED_UNIVERSAL_TIME_OFFSET ( 1, 0, .AHEAD. ) ;
#148 = MECHANICAL_CONTEXT ( 'NONE', #101, 'mechanical' ) ;
#149 = PERSON_AND_ORGANIZATION ( #33, #178 ) ;
#150 = ADVANCED_BREP_SHAPE_REPRESENTATION ( '52212', ( #8, #14, #203 ), #66 ) ;
#151 = DATE_TIME_ROLE ( 'creation_date' ) ;
#152 = EDGE_LOOP ( 'NONE', ( #105 ) ) ;
#153 = FACE_OUTER_BOUND ( 'NONE', #125, .T. ) ;
#154 = ORIENTED_EDGE ( 'NONE', *, *, #181, .F. ) ;
#155 = EDGE_LOOP ( 'NONE', ( #170 ) ) ;
#156 = AXIS2_PLACEMENT_3D ( 'NONE', #97, #126, #111 ) ;
#157 = AXIS2_PLACEMENT_3D ( 'NONE', #57, #74, #46 ) ;
#158 = FACE_OUTER_BOUND ( 'NONE', #152, .T. ) ;
#159 = CC_DESIGN_PERSON_AND_ORGANIZATION_ASSIGNMENT ( #48, #198, ( #207 ) ) ;
#160 = DIRECTION ( 'NONE',  ( 3.491481338843133355E-15, -1.224646799147353207E-16, 1.000000000000000000 ) ) ;
#161 = DIRECTION ( 'NONE',  ( 3.491481338843133355E-15, -1.224646799147353207E-16, 1.000000000000000000 ) ) ;
#162 = CIRCLE ( 'NONE', #65, 0.8749999999999985567 ) ;
#163 = CARTESIAN_POINT ( 'NONE',  ( 4.189777606611760026E-14, -1.469576158976823947E-15, 12.00000000000000000 ) ) ;
#164 = CARTESIAN_POINT ( 'NONE',  ( 1.763831729495200207E-15, -6.186688892562015962E-17, 0.5051814855409273441 ) ) ;
#165 = DIRECTION ( 'NONE',  ( 1.000000000000000000, 0.0000000000000000000, 0.0000000000000000000 ) ) ;
#166 = APPROVAL_PERSON_ORGANIZATION ( #196, #35, #119 ) ;
#167 = DATE_AND_TIME ( #34, #220 ) ;
#168 = APPLICATION_PROTOCOL_DEFINITION ( 'international standard', 'config_control_design', 1994, #20 ) ;
#169 = ADVANCED_FACE ( 'NONE', ( #210, #55 ), #130, .T. ) ;
#170 = ORIENTED_EDGE ( 'NONE', *, *, #132, .T. ) ;
#171 = ORIENTED_EDGE ( 'NONE', *, *, #22, .T. ) ;
#172 = AXIS2_PLACEMENT_3D ( 'NONE', #176, #146, #58 ) ;
#173 = PRODUCT_DEFINITION_SHAPE ( 'NONE', 'NONE',  #10 ) ;
#174 = ORIENTED_EDGE ( 'NONE', *, *, #89, .F. ) ;
#175 = FACE_OUTER_BOUND ( 'NONE', #219, .T. ) ;
#176 = CARTESIAN_POINT ( 'NONE',  ( 1.319779946082704535E-13, -4.629164900776995227E-15, 37.79999999999999716 ) ) ;
#177 = FACE_BOUND ( 'NONE', #41, .T. ) ;
#178 = ORGANIZATION ( 'UNSPECIFIED', 'UNSPECIFIED', '' ) ;
#179 = VERTEX_POINT ( 'NONE', #29 ) ;
#180 = DATE_AND_TIME ( #193, #76 ) ;
#181 = EDGE_CURVE ( 'NONE', #9, #9, #188, .T. ) ;
#182 = LOCAL_TIME ( 7, 54, 0.0000000000000000000, #32 ) ;
#183 = SECURITY_CLASSIFICATION_LEVEL ( 'unclassified' ) ;
#184 = COORDINATED_UNIVERSAL_TIME_OFFSET ( 1, 0, .AHEAD. ) ;
#185 = CALENDAR_DATE ( 2021, 8, 10 ) ;
#186 = AXIS2_PLACEMENT_3D ( 'NONE', #221, #200, #51 ) ;
#187 = CARTESIAN_POINT ( 'NONE',  ( 4.265370395018695741E-14, -1.496090539944946109E-15, 12.21650635094610671 ) ) ;
#188 = CIRCLE ( 'NONE', #127, 0.8749999999999987788 ) ;
#189 = CARTESIAN_POINT ( 'NONE',  ( 4.189777606611760026E-14, 6.561449049145595560E-33, 12.00000000000000000 ) ) ;
#190 = DIRECTION ( 'NONE',  ( -3.491481338843133355E-15, 1.224646799147353207E-16, -1.000000000000000000 ) ) ;
#191 = DIRECTION ( 'NONE',  ( -4.275831445896958607E-31, -1.000000000000000000, -1.224646799147353207E-16 ) ) ;
#192 = PLANE ( 'NONE',  #90 ) ;
#193 = CALENDAR_DATE ( 2021, 8, 10 ) ;
#194 = APPROVAL_DATE_TIME ( #134, #18 ) ;
#195 = APPROVAL_PERSON_ORGANIZATION ( #218, #18, #13 ) ;
#196 = PERSON_AND_ORGANIZATION ( #33, #178 ) ;
#197 = APPROVAL_DATE_TIME ( #61, #116 ) ;
#198 = PERSON_AND_ORGANIZATION_ROLE ( 'creator' ) ;
#199 = APPROVAL_PERSON_ORGANIZATION ( #85, #116, #215 ) ;
#200 = DIRECTION ( 'NONE',  ( -3.491481338843133355E-15, 1.224646799147353207E-16, -1.000000000000000000 ) ) ;
#201 = CIRCLE ( 'NONE', #156, 0.8000000000000010436 ) ;
#202 = DIRECTION ( 'NONE',  ( -3.491481338843133355E-15, 1.224646799147353207E-16, -1.000000000000000000 ) ) ;
#203 = AXIS2_PLACEMENT_3D ( 'NONE', #213, #80, #165 ) ;
#204 = EDGE_LOOP ( 'NONE', ( #21 ) ) ;
#205 = DIRECTION ( 'NONE',  ( -3.491481338843133355E-15, 1.224646799147353207E-16, -1.000000000000000000 ) ) ;
#206 = CARTESIAN_POINT ( 'NONE',  ( 4.189777606611760026E-14, 6.561449049145595560E-33, 12.00000000000000000 ) ) ;
#207 = PRODUCT_DEFINITION_FORMATION_WITH_SPECIFIED_SOURCE ( 'ANY', '', #108, .NOT_KNOWN. ) ;
#208 = FACE_BOUND ( 'NONE', #87, .T. ) ;
#209 = ADVANCED_FACE ( 'NONE', ( #24 ), #192, .T. ) ;
#210 = FACE_OUTER_BOUND ( 'NONE', #86, .T. ) ;
#211 = DIRECTION ( 'NONE',  ( -4.402125587170831939E-31, -1.000000000000000000, -1.239088197126292789E-16 ) ) ;
#212 = AXIS2_PLACEMENT_3D ( 'NONE', #143, #205, #78 ) ;
#213 = CARTESIAN_POINT ( 'NONE',  ( 0.0000000000000000000, 0.0000000000000000000, 0.0000000000000000000 ) ) ;
#214 = ADVANCED_FACE ( 'NONE', ( #208, #75 ), #28, .T. ) ;
#215 = APPROVAL_ROLE ( '' ) ;
#216 = CALENDAR_DATE ( 2021, 8, 10 ) ;
#217 = PERSON_AND_ORGANIZATION ( #33, #178 ) ;
#218 = PERSON_AND_ORGANIZATION ( #33, #178 ) ;
#219 = EDGE_LOOP ( 'NONE', ( #121 ) ) ;
#220 = LOCAL_TIME ( 7, 54, 0.0000000000000000000, #184 ) ;
#221 = CARTESIAN_POINT ( 'NONE',  ( 1.326762908760390423E-13, 5.999039130647368167E-33, 38.00000000000000000 ) ) ;
#222 = ADVANCED_FACE ( 'NONE', ( #93 ), #120, .T. ) ;
#223 = EDGE_LOOP ( 'NONE', ( #154 ) ) ;
ENDSEC;
END-ISO-10303-21;
