ISO-10303-21;
HEADER;
FILE_DESCRIPTION (( 'STEP AP203' ),
    '1' );
FILE_NAME ('52211.step',
    '2021-10-08T05:54:00',
    ( '' ),
    ( '' ),
    'SwSTEP 2.0',
    'SolidWorks 2019',
    '' );
FILE_SCHEMA (( 'CONFIG_CONTROL_DESIGN' ));
ENDSEC;

DATA;
#1 = PERSON_AND_ORGANIZATION_ROLE ( 'design_owner' ) ;
#2 = CARTESIAN_POINT ( 'NONE',  ( 1.326762908760390423E-13, 0.7999999999999963807, 38.00000000000000000 ) ) ;
#3 = APPROVAL_ROLE ( '' ) ;
#4 = CALENDAR_DATE ( 2021, 8, 10 ) ;
#5 = ORGANIZATION ( 'UNSPECIFIED', 'UNSPECIFIED', '' ) ;
#6 = PLANE ( 'NONE',  #217 ) ;
#7 = MANIFOLD_SOLID_BREP ( 'Corps-Déplacer/Copier1[1]', #122 ) ;
#8 = APPROVAL ( #117, 'UNSPECIFIED' ) ;
#9 = FACE_OUTER_BOUND ( 'NONE', #163, .T. ) ;
#10 = CIRCLE ( 'NONE', #64, 0.8249999999999986233 ) ;
#11 = DIRECTION ( 'NONE',  ( 0.0000000000000000000, 1.000000000000000000, 0.0000000000000000000 ) ) ;
#12 = CIRCLE ( 'NONE', #107, 0.8250000000000017319 ) ;
#13 = DIRECTION ( 'NONE',  ( 0.0000000000000000000, 1.000000000000000000, 0.0000000000000000000 ) ) ;
#14 = CALENDAR_DATE ( 2021, 8, 10 ) ;
#15 = DIRECTION ( 'NONE',  ( 3.491481338843133355E-15, -1.224646799147353207E-16, 1.000000000000000000 ) ) ;
#16 = SECURITY_CLASSIFICATION ( '', '', #110 ) ;
#17 = EDGE_CURVE ( 'NONE', #169, #169, #142, .T. ) ;
#18 = EDGE_LOOP ( 'NONE', ( #179 ) ) ;
#19 = PRODUCT_DEFINITION_FORMATION_WITH_SPECIFIED_SOURCE ( 'ANY', '', #41, .NOT_KNOWN. ) ;
#20 = DIRECTION ( 'NONE',  ( -3.491481338843133355E-15, 1.224646799147353207E-16, -1.000000000000000000 ) ) ;
#21 = DATE_AND_TIME ( #216, #135 ) ;
#22 = CARTESIAN_POINT ( 'NONE',  ( 4.295607510381470784E-14, -1.506696292332195565E-15, 12.30310889132455188 ) ) ;
#23 = ADVANCED_FACE ( 'NONE', ( #79, #9 ), #127, .T. ) ;
#24 = APPLICATION_CONTEXT ( 'configuration controlled 3d designs of mechanical parts and assemblies' ) ;
#25 = FACE_OUTER_BOUND ( 'NONE', #106, .T. ) ;
#26 = APPROVAL_PERSON_ORGANIZATION ( #213, #140, #198 ) ;
#27 = EDGE_LOOP ( 'NONE', ( #56 ) ) ;
#28 = CARTESIAN_POINT ( 'NONE',  ( 4.189777606611760026E-14, 6.186509103480154422E-33, 12.00000000000000000 ) ) ;
#29 = COORDINATED_UNIVERSAL_TIME_OFFSET ( 1, 0, .AHEAD. ) ;
#30 = CC_DESIGN_PERSON_AND_ORGANIZATION_ASSIGNMENT ( #192, #54, ( #19 ) ) ;
#31 = AXIS2_PLACEMENT_3D ( 'NONE', #148, #197, #167 ) ;
#32 = CARTESIAN_POINT ( 'NONE',  ( 4.295607510381470784E-14, -1.506696292332195565E-15, 12.30310889132455188 ) ) ;
#33 = VERTEX_POINT ( 'NONE', #66 ) ;
#34 = PERSON_AND_ORGANIZATION ( #118, #5 ) ;
#35 = APPLICATION_CONTEXT ( 'configuration controlled 3d designs of mechanical parts and assemblies' ) ;
#36 = DATE_TIME_ROLE ( 'classification_date' ) ;
#37 = DIRECTION ( 'NONE',  ( -3.491481338843133355E-15, 1.224646799147353207E-16, -1.000000000000000000 ) ) ;
#38 = DATE_AND_TIME ( #4, #104 ) ;
#39 = DIRECTION ( 'NONE',  ( -4.275831445896958607E-31, -1.000000000000000000, -1.224646799147353207E-16 ) ) ;
#40 = CC_DESIGN_DATE_AND_TIME_ASSIGNMENT ( #21, #36, ( #16 ) ) ;
#41 = PRODUCT ( '52211', '52211', '', ( #206 ) ) ;
#42 = AXIS2_PLACEMENT_3D ( 'NONE', #28, #15, #103 ) ;
#43 = ADVANCED_FACE ( 'NONE', ( #147 ), #143, .T. ) ;
#44 = FACE_BOUND ( 'NONE', #101, .T. ) ;
#45 = AXIS2_PLACEMENT_3D ( 'NONE', #114, #186, #102 ) ;
#46 = APPLICATION_PROTOCOL_DEFINITION ( 'international standard', 'config_control_design', 1994, #35 ) ;
#47 = ADVANCED_BREP_SHAPE_REPRESENTATION ( '52211', ( #7, #162, #123 ), #80 ) ;
#48 = PERSON_AND_ORGANIZATION ( #118, #5 ) ;
#49 = DATE_TIME_ROLE ( 'creation_date' ) ;
#50 = CIRCLE ( 'NONE', #84, 0.9999999999999970024 ) ;
#51 = CARTESIAN_POINT ( 'NONE',  ( 1.319779946082704535E-13, 0.9999999999999963363, 37.79999999999999716 ) ) ;
#52 = FACE_BOUND ( 'NONE', #145, .T. ) ;
#53 = ORIENTED_EDGE ( 'NONE', *, *, #96, .F. ) ;
#54 = PERSON_AND_ORGANIZATION_ROLE ( 'creator' ) ;
#55 = ORIENTED_EDGE ( 'NONE', *, *, #91, .F. ) ;
#56 = ORIENTED_EDGE ( 'NONE', *, *, #150, .F. ) ;
#57 = CARTESIAN_POINT ( 'NONE',  ( 1.663041344952617519E-15, -5.833163812987044361E-17, 0.4763139720814458800 ) ) ;
#58 = SHAPE_DEFINITION_REPRESENTATION ( #98, #47 ) ;
#59 = DIRECTION ( 'NONE',  ( 3.491481338843133355E-15, -1.224646799147353207E-16, 1.000000000000000000 ) ) ;
#60 = COORDINATED_UNIVERSAL_TIME_OFFSET ( 1, 0, .AHEAD. ) ;
#61 = DIRECTION ( 'NONE',  ( 0.0000000000000000000, 1.000000000000000000, 0.0000000000000000000 ) ) ;
#62 = ORIENTED_EDGE ( 'NONE', *, *, #96, .T. ) ;
#63 = FACE_OUTER_BOUND ( 'NONE', #211, .T. ) ;
#64 = AXIS2_PLACEMENT_3D ( 'NONE', #57, #201, #111 ) ;
#65 = ADVANCED_FACE ( 'NONE', ( #25, #214 ), #202, .T. ) ;
#66 = CARTESIAN_POINT ( 'NONE',  ( 4.189777606611760026E-14, 0.8250000000000001776, 12.00000000000000000 ) ) ;
#67 = COORDINATED_UNIVERSAL_TIME_OFFSET ( 1, 0, .AHEAD. ) ;
#68 = DIRECTION ( 'NONE',  ( 3.491481338843133355E-15, -1.224646799147353207E-16, 1.000000000000000000 ) ) ;
#69 = AXIS2_PLACEMENT_3D ( 'NONE', #133, #131, #113 ) ;
#70 = DESIGN_CONTEXT ( 'detailed design', #35, 'design' ) ;
#71 = PERSON_AND_ORGANIZATION ( #118, #5 ) ;
#72 = DATE_AND_TIME ( #93, #189 ) ;
#73 = ORIENTED_EDGE ( 'NONE', *, *, #17, .F. ) ;
#74 = CIRCLE ( 'NONE', #89, 1.000000000000000888 ) ;
#75 = EDGE_LOOP ( 'NONE', ( #191 ) ) ;
#76 = PLANE ( 'NONE',  #183 ) ;
#77 = CARTESIAN_POINT ( 'NONE',  ( 4.189777606611760026E-14, -1.469576158976823947E-15, 12.00000000000000000 ) ) ;
#78 = CC_DESIGN_DATE_AND_TIME_ASSIGNMENT ( #207, #49, ( #181 ) ) ;
#79 = FACE_OUTER_BOUND ( 'NONE', #75, .T. ) ;
#80 =( GEOMETRIC_REPRESENTATION_CONTEXT ( 3 ) GLOBAL_UNCERTAINTY_ASSIGNED_CONTEXT ( ( #90 ) ) GLOBAL_UNIT_ASSIGNED_CONTEXT ( ( #105, #86, #137 ) ) REPRESENTATION_CONTEXT ( 'NONE', 'WORKASPACE' ) );
#81 = CARTESIAN_POINT ( 'NONE',  ( 0.0000000000000000000, 0.0000000000000000000, 0.0000000000000000000 ) ) ;
#82 = CC_DESIGN_PERSON_AND_ORGANIZATION_ASSIGNMENT ( #71, #176, ( #16 ) ) ;
#83 = PERSON_AND_ORGANIZATION ( #118, #5 ) ;
#84 = AXIS2_PLACEMENT_3D ( 'NONE', #22, #134, #61 ) ;
#85 = CARTESIAN_POINT ( 'NONE',  ( 1.663041344952617913E-15, 0.8249999999999985123, 0.4763139720814459910 ) ) ;
#86 =( NAMED_UNIT ( * ) PLANE_ANGLE_UNIT ( ) SI_UNIT ( $, .RADIAN. ) );
#87 = DATE_AND_TIME ( #14, #160 ) ;
#88 = APPROVAL ( #95, 'UNSPECIFIED' ) ;
#89 = AXIS2_PLACEMENT_3D ( 'NONE', #112, #20, #149 ) ;
#90 = UNCERTAINTY_MEASURE_WITH_UNIT (LENGTH_MEASURE( 1.000000000000000082E-05 ), #105, 'distance_accuracy_value', 'NONE');
#91 = EDGE_CURVE ( 'NONE', #33, #33, #12, .T. ) ;
#92 = CLOSED_SHELL ( 'NONE', ( #43, #65, #159 ) ) ;
#93 = CALENDAR_DATE ( 2021, 8, 10 ) ;
#94 = DIRECTION ( 'NONE',  ( -3.491481338843133355E-15, 1.224646799147353207E-16, -1.000000000000000000 ) ) ;
#95 = APPROVAL_STATUS ( 'not_yet_approved' ) ;
#96 = EDGE_CURVE ( 'NONE', #120, #120, #74, .T. ) ;
#97 = FACE_OUTER_BOUND ( 'NONE', #220, .T. ) ;
#98 = PRODUCT_DEFINITION_SHAPE ( 'NONE', 'NONE',  #181 ) ;
#99 = DIRECTION ( 'NONE',  ( -3.491481338843133355E-15, 1.224646799147353207E-16, -1.000000000000000000 ) ) ;
#100 = CC_DESIGN_PERSON_AND_ORGANIZATION_ASSIGNMENT ( #155, #223, ( #181 ) ) ;
#101 = EDGE_LOOP ( 'NONE', ( #199 ) ) ;
#102 = DIRECTION ( 'NONE',  ( 0.0000000000000000000, 1.000000000000000000, 0.0000000000000000000 ) ) ;
#103 = DIRECTION ( 'NONE',  ( -4.275831445896958607E-31, -1.000000000000000000, -1.224646799147353207E-16 ) ) ;
#104 = LOCAL_TIME ( 7, 54, 0.0000000000000000000, #146 ) ;
#105 =( LENGTH_UNIT ( ) NAMED_UNIT ( * ) SI_UNIT ( .MILLI., .METRE. ) );
#106 = EDGE_LOOP ( 'NONE', ( #182 ) ) ;
#107 = AXIS2_PLACEMENT_3D ( 'NONE', #125, #99, #168 ) ;
#108 = COORDINATED_UNIVERSAL_TIME_OFFSET ( 1, 0, .AHEAD. ) ;
#109 = PERSON_AND_ORGANIZATION ( #118, #5 ) ;
#110 = SECURITY_CLASSIFICATION_LEVEL ( 'unclassified' ) ;
#111 = DIRECTION ( 'NONE',  ( 4.668921077302397404E-31, 1.000000000000000000, 1.314184451497583231E-16 ) ) ;
#112 = CARTESIAN_POINT ( 'NONE',  ( 1.319779946082704535E-13, -4.629164900776995227E-15, 37.79999999999999716 ) ) ;
#113 = DIRECTION ( 'NONE',  ( -4.668921077302397404E-31, -1.000000000000000000, -1.314184451497583231E-16 ) ) ;
#114 = CARTESIAN_POINT ( 'NONE',  ( 1.326762908760390423E-13, -4.653657836759941941E-15, 38.00000000000000000 ) ) ;
#115 = APPROVAL_PERSON_ORGANIZATION ( #48, #8, #188 ) ;
#116 = CARTESIAN_POINT ( 'NONE',  ( 4.295607510381470784E-14, 0.9999999999999954481, 12.30310889132455188 ) ) ;
#117 = APPROVAL_STATUS ( 'not_yet_approved' ) ;
#118 = PERSON ( 'UNSPECIFIED', 'UNSPECIFIED', 'UNSPECIFIED', ('UNSPECIFIED'), ('UNSPECIFIED'), ('UNSPECIFIED') ) ;
#119 = PLANE ( 'NONE',  #42 ) ;
#120 = VERTEX_POINT ( 'NONE', #51 ) ;
#121 = EDGE_CURVE ( 'NONE', #173, #173, #10, .T. ) ;
#122 = CLOSED_SHELL ( 'NONE', ( #219, #215, #23, #204, #154 ) ) ;
#123 = AXIS2_PLACEMENT_3D ( 'NONE', #205, #174, #139 ) ;
#124 = ORIENTED_EDGE ( 'NONE', *, *, #91, .T. ) ;
#125 = CARTESIAN_POINT ( 'NONE',  ( 4.189777606611760026E-14, -1.469576158976823947E-15, 12.00000000000000000 ) ) ;
#126 = PERSON_AND_ORGANIZATION_ROLE ( 'design_supplier' ) ;
#127 = CYLINDRICAL_SURFACE ( 'NONE', #170, 0.9999999999999988898 ) ;
#128 = PRODUCT_RELATED_PRODUCT_CATEGORY ( 'detail', '', ( #41 ) ) ;
#129 = CC_DESIGN_APPROVAL ( #88, ( #19 ) ) ;
#130 = APPROVAL_DATE_TIME ( #72, #140 ) ;
#131 = DIRECTION ( 'NONE',  ( 3.491481338843133355E-15, -1.224646799147353207E-16, 1.000000000000000000 ) ) ;
#132 = APPROVAL_PERSON_ORGANIZATION ( #109, #88, #3 ) ;
#133 = CARTESIAN_POINT ( 'NONE',  ( 1.663041344952617519E-15, -5.833163812987044361E-17, 0.4763139720814458800 ) ) ;
#134 = DIRECTION ( 'NONE',  ( -3.491481338843133355E-15, 1.224646799147353207E-16, -1.000000000000000000 ) ) ;
#135 = LOCAL_TIME ( 7, 54, 0.0000000000000000000, #108 ) ;
#136 = CALENDAR_DATE ( 2021, 8, 10 ) ;
#137 =( NAMED_UNIT ( * ) SI_UNIT ( $, .STERADIAN. ) SOLID_ANGLE_UNIT ( ) );
#138 = CONICAL_SURFACE ( 'NONE', #203, 0.9999999999999970024, 0.5235987755982890457 ) ;
#139 = DIRECTION ( 'NONE',  ( 1.000000000000000000, 0.0000000000000000000, 0.0000000000000000000 ) ) ;
#140 = APPROVAL ( #141, 'UNSPECIFIED' ) ;
#141 = APPROVAL_STATUS ( 'not_yet_approved' ) ;
#142 = CIRCLE ( 'NONE', #165, 0.8250000000000017319 ) ;
#143 = CONICAL_SURFACE ( 'NONE', #69, 0.8249999999999986233, 1.047197551196592746 ) ;
#144 = APPROVAL_DATE_TIME ( #38, #88 ) ;
#145 = EDGE_LOOP ( 'NONE', ( #55 ) ) ;
#146 = COORDINATED_UNIVERSAL_TIME_OFFSET ( 1, 0, .AHEAD. ) ;
#147 = FACE_OUTER_BOUND ( 'NONE', #18, .T. ) ;
#148 = CARTESIAN_POINT ( 'NONE',  ( 0.0000000000000000000, 0.0000000000000000000, 0.0000000000000000000 ) ) ;
#149 = DIRECTION ( 'NONE',  ( 0.0000000000000000000, 1.000000000000000000, 0.0000000000000000000 ) ) ;
#150 = EDGE_CURVE ( 'NONE', #153, #153, #185, .T. ) ;
#151 = CC_DESIGN_SECURITY_CLASSIFICATION ( #16, ( #19 ) ) ;
#152 = DIRECTION ( 'NONE',  ( -3.491481338843133355E-15, 1.224646799147353207E-16, -1.000000000000000000 ) ) ;
#153 = VERTEX_POINT ( 'NONE', #2 ) ;
#154 = ADVANCED_FACE ( 'NONE', ( #195 ), #76, .F. ) ;
#155 = PERSON_AND_ORGANIZATION ( #118, #5 ) ;
#156 = APPLICATION_PROTOCOL_DEFINITION ( 'international standard', 'config_control_design', 1994, #24 ) ;
#157 = EDGE_LOOP ( 'NONE', ( #194 ) ) ;
#158 = APPROVAL_DATE_TIME ( #87, #8 ) ;
#159 = ADVANCED_FACE ( 'NONE', ( #63 ), #6, .T. ) ;
#160 = LOCAL_TIME ( 7, 54, 0.0000000000000000000, #29 ) ;
#161 = CARTESIAN_POINT ( 'NONE',  ( 1.326762908760390423E-13, 5.999039130647368167E-33, 38.00000000000000000 ) ) ;
#162 = MANIFOLD_SOLID_BREP ( 'Corps-Déplacer/Copier1[2]', #92 ) ;
#163 = EDGE_LOOP ( 'NONE', ( #62 ) ) ;
#164 = CARTESIAN_POINT ( 'NONE',  ( 1.326762908760390423E-13, -4.653657836759941941E-15, 38.00000000000000000 ) ) ;
#165 = AXIS2_PLACEMENT_3D ( 'NONE', #77, #94, #11 ) ;
#166 = CONICAL_SURFACE ( 'NONE', #45, 0.8000000000000010436, 0.7853981633974510546 ) ;
#167 = DIRECTION ( 'NONE',  ( 4.275831445896958607E-31, 1.000000000000000000, 1.224646799147353207E-16 ) ) ;
#168 = DIRECTION ( 'NONE',  ( 0.0000000000000000000, 1.000000000000000000, 0.0000000000000000000 ) ) ;
#169 = VERTEX_POINT ( 'NONE', #208 ) ;
#170 = AXIS2_PLACEMENT_3D ( 'NONE', #81, #37, #212 ) ;
#171 = VERTEX_POINT ( 'NONE', #116 ) ;
#172 = CC_DESIGN_APPROVAL ( #8, ( #181 ) ) ;
#173 = VERTEX_POINT ( 'NONE', #85 ) ;
#174 = DIRECTION ( 'NONE',  ( 0.0000000000000000000, 0.0000000000000000000, 1.000000000000000000 ) ) ;
#175 = EDGE_LOOP ( 'NONE', ( #209 ) ) ;
#176 = PERSON_AND_ORGANIZATION_ROLE ( 'classification_officer' ) ;
#177 = CC_DESIGN_PERSON_AND_ORGANIZATION_ASSIGNMENT ( #34, #126, ( #19 ) ) ;
#178 = AXIS2_PLACEMENT_3D ( 'NONE', #164, #218, #13 ) ;
#179 = ORIENTED_EDGE ( 'NONE', *, *, #121, .T. ) ;
#180 = CARTESIAN_POINT ( 'NONE',  ( 4.189777606611760026E-14, 6.186509103480154422E-33, 12.00000000000000000 ) ) ;
#181 = PRODUCT_DEFINITION ( 'UNKNOWN', '', #19, #70 ) ;
#182 = ORIENTED_EDGE ( 'NONE', *, *, #121, .F. ) ;
#183 = AXIS2_PLACEMENT_3D ( 'NONE', #161, #152, #221 ) ;
#184 = EDGE_LOOP ( 'NONE', ( #124 ) ) ;
#185 = CIRCLE ( 'NONE', #178, 0.8000000000000010436 ) ;
#186 = DIRECTION ( 'NONE',  ( -3.491481338843133355E-15, 1.224646799147353207E-16, -1.000000000000000000 ) ) ;
#187 = FACE_OUTER_BOUND ( 'NONE', #175, .T. ) ;
#188 = APPROVAL_ROLE ( '' ) ;
#189 = LOCAL_TIME ( 7, 54, 0.0000000000000000000, #60 ) ;
#190 = DIRECTION ( 'NONE',  ( 0.0000000000000000000, -1.000000000000000000, 0.0000000000000000000 ) ) ;
#191 = ORIENTED_EDGE ( 'NONE', *, *, #193, .F. ) ;
#192 = PERSON_AND_ORGANIZATION ( #118, #5 ) ;
#193 = EDGE_CURVE ( 'NONE', #171, #171, #50, .T. ) ;
#194 = ORIENTED_EDGE ( 'NONE', *, *, #17, .T. ) ;
#195 = FACE_OUTER_BOUND ( 'NONE', #27, .T. ) ;
#196 = CC_DESIGN_APPROVAL ( #140, ( #16 ) ) ;
#197 = DIRECTION ( 'NONE',  ( -3.491481338843133355E-15, 1.224646799147353207E-16, -1.000000000000000000 ) ) ;
#198 = APPROVAL_ROLE ( '' ) ;
#199 = ORIENTED_EDGE ( 'NONE', *, *, #150, .T. ) ;
#200 = LOCAL_TIME ( 7, 54, 0.0000000000000000000, #67 ) ;
#201 = DIRECTION ( 'NONE',  ( -3.491481338843133355E-15, 1.224646799147353207E-16, -1.000000000000000000 ) ) ;
#202 = CYLINDRICAL_SURFACE ( 'NONE', #31, 0.8250000000000001776 ) ;
#203 = AXIS2_PLACEMENT_3D ( 'NONE', #32, #68, #190 ) ;
#204 = ADVANCED_FACE ( 'NONE', ( #97, #44 ), #166, .T. ) ;
#205 = CARTESIAN_POINT ( 'NONE',  ( 0.0000000000000000000, 0.0000000000000000000, 0.0000000000000000000 ) ) ;
#206 = MECHANICAL_CONTEXT ( 'NONE', #24, 'mechanical' ) ;
#207 = DATE_AND_TIME ( #136, #200 ) ;
#208 = CARTESIAN_POINT ( 'NONE',  ( 4.189777606611760026E-14, 0.8250000000000001776, 12.00000000000000000 ) ) ;
#209 = ORIENTED_EDGE ( 'NONE', *, *, #193, .T. ) ;
#210 = CC_DESIGN_PERSON_AND_ORGANIZATION_ASSIGNMENT ( #83, #1, ( #41 ) ) ;
#211 = EDGE_LOOP ( 'NONE', ( #73 ) ) ;
#212 = DIRECTION ( 'NONE',  ( 4.275831445896957731E-31, 1.000000000000000000, 1.224646799147353454E-16 ) ) ;
#213 = PERSON_AND_ORGANIZATION ( #118, #5 ) ;
#214 = FACE_OUTER_BOUND ( 'NONE', #157, .T. ) ;
#215 = ADVANCED_FACE ( 'NONE', ( #52, #187 ), #138, .T. ) ;
#216 = CALENDAR_DATE ( 2021, 8, 10 ) ;
#217 = AXIS2_PLACEMENT_3D ( 'NONE', #180, #59, #39 ) ;
#218 = DIRECTION ( 'NONE',  ( -3.491481338843133355E-15, 1.224646799147353207E-16, -1.000000000000000000 ) ) ;
#219 = ADVANCED_FACE ( 'NONE', ( #222 ), #119, .F. ) ;
#220 = EDGE_LOOP ( 'NONE', ( #53 ) ) ;
#221 = DIRECTION ( 'NONE',  ( 4.275831445896958607E-31, 1.000000000000000000, 1.224646799147353207E-16 ) ) ;
#222 = FACE_OUTER_BOUND ( 'NONE', #184, .T. ) ;
#223 = PERSON_AND_ORGANIZATION_ROLE ( 'creator' ) ;
ENDSEC;
END-ISO-10303-21;
