ISO-10303-21;
HEADER;
FILE_DESCRIPTION (( 'STEP AP203' ),
    '1' );
FILE_NAME ('52210.step',
    '2021-10-08T05:53:59',
    ( '' ),
    ( '' ),
    'SwSTEP 2.0',
    'SolidWorks 2019',
    '' );
FILE_SCHEMA (( 'CONFIG_CONTROL_DESIGN' ));
ENDSEC;

DATA;
#1 = CARTESIAN_POINT ( 'NONE',  ( 4.189777606611760026E-14, 5.999039130647396220E-33, 12.00000000000000000 ) ) ;
#2 = VERTEX_POINT ( 'NONE', #76 ) ;
#3 = CARTESIAN_POINT ( 'NONE',  ( 1.319779946082704535E-13, 0.9999999999999963363, 37.79999999999999716 ) ) ;
#4 = EDGE_CURVE ( 'NONE', #42, #42, #31, .T. ) ;
#5 = MANIFOLD_SOLID_BREP ( 'Corps-Déplacer/Copier1[2]', #59 ) ;
#6 = DIRECTION ( 'NONE',  ( -4.275831445896958607E-31, -1.000000000000000000, -1.224646799147353207E-16 ) ) ;
#7 = DIRECTION ( 'NONE',  ( -4.275831445896958607E-31, -1.000000000000000000, -1.224646799147353207E-16 ) ) ;
#8 = COORDINATED_UNIVERSAL_TIME_OFFSET ( 1, 0, .AHEAD. ) ;
#9 = EDGE_CURVE ( 'NONE', #87, #87, #102, .T. ) ;
#10 = APPROVAL_PERSON_ORGANIZATION ( #26, #107, #181 ) ;
#11 = EDGE_LOOP ( 'NONE', ( #223 ) ) ;
#12 = PRODUCT_DEFINITION ( 'UNKNOWN', '', #60, #161 ) ;
#13 = EDGE_LOOP ( 'NONE', ( #15 ) ) ;
#14 = DIRECTION ( 'NONE',  ( -3.491481338843133355E-15, 1.224646799147353207E-16, -1.000000000000000000 ) ) ;
#15 = ORIENTED_EDGE ( 'NONE', *, *, #98, .F. ) ;
#16 = CARTESIAN_POINT ( 'NONE',  ( 1.326762908760390423E-13, 0.7999999999999963807, 38.00000000000000000 ) ) ;
#17 = CARTESIAN_POINT ( 'NONE',  ( 4.189777606611760026E-14, -1.469576158976823947E-15, 12.00000000000000000 ) ) ;
#18 = CONICAL_SURFACE ( 'NONE', #219, 0.7999999999999986011, 1.047197551196592746 ) ;
#19 = CC_DESIGN_DATE_AND_TIME_ASSIGNMENT ( #45, #220, ( #12 ) ) ;
#20 = FACE_OUTER_BOUND ( 'NONE', #13, .T. ) ;
#21 = UNCERTAINTY_MEASURE_WITH_UNIT (LENGTH_MEASURE( 1.000000000000000082E-05 ), #124, 'distance_accuracy_value', 'NONE');
#22 = DIRECTION ( 'NONE',  ( 3.491481338843133355E-15, -1.224646799147353207E-16, 1.000000000000000000 ) ) ;
#23 = ADVANCED_BREP_SHAPE_REPRESENTATION ( '52210', ( #153, #5, #112 ), #147 ) ;
#24 = APPLICATION_PROTOCOL_DEFINITION ( 'international standard', 'config_control_design', 1994, #110 ) ;
#25 = CALENDAR_DATE ( 2021, 8, 10 ) ;
#26 = PERSON_AND_ORGANIZATION ( #129, #193 ) ;
#27 = AXIS2_PLACEMENT_3D ( 'NONE', #17, #43, #122 ) ;
#28 = PRODUCT_RELATED_PRODUCT_CATEGORY ( 'detail', '', ( #137 ) ) ;
#29 = EDGE_LOOP ( 'NONE', ( #205 ) ) ;
#30 = SHAPE_DEFINITION_REPRESENTATION ( #41, #23 ) ;
#31 = CIRCLE ( 'NONE', #216, 0.8000000000000010436 ) ;
#32 = FACE_OUTER_BOUND ( 'NONE', #29, .T. ) ;
#33 = ORIENTED_EDGE ( 'NONE', *, *, #9, .T. ) ;
#34 = ORIENTED_EDGE ( 'NONE', *, *, #9, .F. ) ;
#35 = CONICAL_SURFACE ( 'NONE', #166, 0.9999999999999970024, 0.5235987755982945968 ) ;
#36 = FACE_BOUND ( 'NONE', #49, .T. ) ;
#37 = LOCAL_TIME ( 7, 53, 59.00000000000000000, #114 ) ;
#38 = FACE_OUTER_BOUND ( 'NONE', #86, .T. ) ;
#39 = DIRECTION ( 'NONE',  ( -3.491481338843133355E-15, 1.224646799147353207E-16, -1.000000000000000000 ) ) ;
#40 = VERTEX_POINT ( 'NONE', #3 ) ;
#41 = PRODUCT_DEFINITION_SHAPE ( 'NONE', 'NONE',  #12 ) ;
#42 = VERTEX_POINT ( 'NONE', #16 ) ;
#43 = DIRECTION ( 'NONE',  ( -3.491481338843133355E-15, 1.224646799147353207E-16, -1.000000000000000000 ) ) ;
#44 = APPLICATION_PROTOCOL_DEFINITION ( 'international standard', 'config_control_design', 1994, #213 ) ;
#45 = DATE_AND_TIME ( #148, #97 ) ;
#46 = COORDINATED_UNIVERSAL_TIME_OFFSET ( 1, 0, .AHEAD. ) ;
#47 = EDGE_LOOP ( 'NONE', ( #152 ) ) ;
#48 = CALENDAR_DATE ( 2021, 8, 10 ) ;
#49 = EDGE_LOOP ( 'NONE', ( #201 ) ) ;
#50 = CIRCLE ( 'NONE', #77, 0.9999999999999970024 ) ;
#51 = ORIENTED_EDGE ( 'NONE', *, *, #66, .T. ) ;
#52 = ADVANCED_FACE ( 'NONE', ( #32, #83 ), #171, .T. ) ;
#53 = DIRECTION ( 'NONE',  ( -3.491481338843133355E-15, 1.224646799147353207E-16, -1.000000000000000000 ) ) ;
#54 = CIRCLE ( 'NONE', #27, 0.7999999999999983791 ) ;
#55 = CARTESIAN_POINT ( 'NONE',  ( 4.310726068062858306E-14, -1.511999168525820194E-15, 12.34641016151377713 ) ) ;
#56 = CARTESIAN_POINT ( 'NONE',  ( 1.319779946082704535E-13, -4.629164900776995227E-15, 37.79999999999999716 ) ) ;
#57 = ADVANCED_FACE ( 'NONE', ( #85 ), #135, .F. ) ;
#58 = CARTESIAN_POINT ( 'NONE',  ( 1.612646152681326372E-15, 0.7999999999999984901, 0.4618802153517052034 ) ) ;
#59 = CLOSED_SHELL ( 'NONE', ( #149, #141, #204 ) ) ;
#60 = PRODUCT_DEFINITION_FORMATION_WITH_SPECIFIED_SOURCE ( 'ANY', '', #137, .NOT_KNOWN. ) ;
#61 = DIRECTION ( 'NONE',  ( -3.491481338843133355E-15, 1.224646799147353207E-16, -1.000000000000000000 ) ) ;
#62 = ADVANCED_FACE ( 'NONE', ( #36, #38 ), #35, .T. ) ;
#63 = PERSON_AND_ORGANIZATION ( #129, #193 ) ;
#64 = PERSON_AND_ORGANIZATION ( #129, #193 ) ;
#65 = DATE_AND_TIME ( #212, #123 ) ;
#66 = EDGE_CURVE ( 'NONE', #154, #154, #50, .T. ) ;
#67 = AXIS2_PLACEMENT_3D ( 'NONE', #72, #100, #101 ) ;
#68 = PERSON_AND_ORGANIZATION ( #129, #193 ) ;
#69 = DIRECTION ( 'NONE',  ( 1.000000000000000000, 0.0000000000000000000, 0.0000000000000000000 ) ) ;
#70 = EDGE_LOOP ( 'NONE', ( #151 ) ) ;
#71 = SECURITY_CLASSIFICATION ( '', '', #111 ) ;
#72 = CARTESIAN_POINT ( 'NONE',  ( 1.612646152681325977E-15, -5.656401273199557944E-17, 0.4618802153517050924 ) ) ;
#73 = EDGE_LOOP ( 'NONE', ( #82 ) ) ;
#74 = CC_DESIGN_APPROVAL ( #144, ( #60 ) ) ;
#75 = CARTESIAN_POINT ( 'NONE',  ( 4.189777606611760026E-14, 0.7999999999999969358, 12.00000000000000000 ) ) ;
#76 = CARTESIAN_POINT ( 'NONE',  ( 4.189777606611760026E-14, 0.7999999999999969358, 12.00000000000000000 ) ) ;
#77 = AXIS2_PLACEMENT_3D ( 'NONE', #55, #61, #139 ) ;
#78 = COORDINATED_UNIVERSAL_TIME_OFFSET ( 1, 0, .AHEAD. ) ;
#79 = PERSON_AND_ORGANIZATION ( #129, #193 ) ;
#80 = CC_DESIGN_PERSON_AND_ORGANIZATION_ASSIGNMENT ( #64, #180, ( #12 ) ) ;
#81 = AXIS2_PLACEMENT_3D ( 'NONE', #56, #39, #125 ) ;
#82 = ORIENTED_EDGE ( 'NONE', *, *, #136, .F. ) ;
#83 = FACE_OUTER_BOUND ( 'NONE', #47, .T. ) ;
#84 = LOCAL_TIME ( 7, 53, 59.00000000000000000, #162 ) ;
#85 = FACE_OUTER_BOUND ( 'NONE', #118, .T. ) ;
#86 = EDGE_LOOP ( 'NONE', ( #51 ) ) ;
#87 = VERTEX_POINT ( 'NONE', #58 ) ;
#88 = PLANE ( 'NONE',  #160 ) ;
#89 = CARTESIAN_POINT ( 'NONE',  ( 1.612646152681325977E-15, -5.656401273199557944E-17, 0.4618802153517050924 ) ) ;
#90 = DIRECTION ( 'NONE',  ( -3.491481338843133355E-15, 1.224646799147353207E-16, -1.000000000000000000 ) ) ;
#91 = EDGE_CURVE ( 'NONE', #2, #2, #54, .T. ) ;
#92 = DIRECTION ( 'NONE',  ( 3.491481338843133355E-15, -1.224646799147353207E-16, 1.000000000000000000 ) ) ;
#93 = AXIS2_PLACEMENT_3D ( 'NONE', #134, #14, #169 ) ;
#94 = DATE_AND_TIME ( #48, #183 ) ;
#95 = DATE_AND_TIME ( #25, #84 ) ;
#96 = CARTESIAN_POINT ( 'NONE',  ( 0.0000000000000000000, 0.0000000000000000000, 0.0000000000000000000 ) ) ;
#97 = LOCAL_TIME ( 7, 53, 59.00000000000000000, #8 ) ;
#98 = EDGE_CURVE ( 'NONE', #192, #192, #175, .T. ) ;
#99 = AXIS2_PLACEMENT_3D ( 'NONE', #207, #176, #103 ) ;
#100 = DIRECTION ( 'NONE',  ( -3.491481338843133355E-15, 1.224646799147353207E-16, -1.000000000000000000 ) ) ;
#101 = DIRECTION ( 'NONE',  ( 4.814824860968098391E-31, 1.000000000000000000, 1.355252715606883008E-16 ) ) ;
#102 = CIRCLE ( 'NONE', #67, 0.7999999999999986011 ) ;
#103 = DIRECTION ( 'NONE',  ( 4.275831445896958607E-31, 1.000000000000000000, 1.224646799147353207E-16 ) ) ;
#104 = DIRECTION ( 'NONE',  ( 0.0000000000000000000, 1.000000000000000000, 0.0000000000000000000 ) ) ;
#105 = CC_DESIGN_SECURITY_CLASSIFICATION ( #71, ( #60 ) ) ;
#106 = DIRECTION ( 'NONE',  ( -3.491481338843133355E-15, 1.224646799147353207E-16, -1.000000000000000000 ) ) ;
#107 = APPROVAL ( #184, 'UNSPECIFIED' ) ;
#108 = DIRECTION ( 'NONE',  ( -4.814824860968098391E-31, -1.000000000000000000, -1.355252715606883008E-16 ) ) ;
#109 = CARTESIAN_POINT ( 'NONE',  ( 4.189777606611760026E-14, -1.469576158976823947E-15, 12.00000000000000000 ) ) ;
#110 = APPLICATION_CONTEXT ( 'configuration controlled 3d designs of mechanical parts and assemblies' ) ;
#111 = SECURITY_CLASSIFICATION_LEVEL ( 'unclassified' ) ;
#112 = AXIS2_PLACEMENT_3D ( 'NONE', #96, #126, #69 ) ;
#113 = DATE_TIME_ROLE ( 'classification_date' ) ;
#114 = COORDINATED_UNIVERSAL_TIME_OFFSET ( 1, 0, .AHEAD. ) ;
#115 = CC_DESIGN_PERSON_AND_ORGANIZATION_ASSIGNMENT ( #197, #168, ( #60 ) ) ;
#116 = DIRECTION ( 'NONE',  ( 0.0000000000000000000, 1.000000000000000000, 0.0000000000000000000 ) ) ;
#117 = EDGE_LOOP ( 'NONE', ( #172 ) ) ;
#118 = EDGE_LOOP ( 'NONE', ( #202 ) ) ;
#119 = AXIS2_PLACEMENT_3D ( 'NONE', #109, #106, #104 ) ;
#120 = FACE_OUTER_BOUND ( 'NONE', #70, .T. ) ;
#121 = DIRECTION ( 'NONE',  ( 3.491481338843133355E-15, -1.224646799147353207E-16, 1.000000000000000000 ) ) ;
#122 = DIRECTION ( 'NONE',  ( 0.0000000000000000000, 1.000000000000000000, 0.0000000000000000000 ) ) ;
#123 = LOCAL_TIME ( 7, 53, 59.00000000000000000, #46 ) ;
#124 =( LENGTH_UNIT ( ) NAMED_UNIT ( * ) SI_UNIT ( .MILLI., .METRE. ) );
#125 = DIRECTION ( 'NONE',  ( 0.0000000000000000000, 1.000000000000000000, 0.0000000000000000000 ) ) ;
#126 = DIRECTION ( 'NONE',  ( 0.0000000000000000000, 0.0000000000000000000, 1.000000000000000000 ) ) ;
#127 = APPROVAL_ROLE ( '' ) ;
#128 = PERSON_AND_ORGANIZATION_ROLE ( 'classification_officer' ) ;
#129 = PERSON ( 'UNSPECIFIED', 'UNSPECIFIED', 'UNSPECIFIED', ('UNSPECIFIED'), ('UNSPECIFIED'), ('UNSPECIFIED') ) ;
#130 = CC_DESIGN_APPROVAL ( #215, ( #12 ) ) ;
#131 = AXIS2_PLACEMENT_3D ( 'NONE', #157, #90, #173 ) ;
#132 = APPROVAL_DATE_TIME ( #65, #144 ) ;
#133 = PERSON_AND_ORGANIZATION ( #129, #193 ) ;
#134 = CARTESIAN_POINT ( 'NONE',  ( 0.0000000000000000000, 0.0000000000000000000, 0.0000000000000000000 ) ) ;
#135 = PLANE ( 'NONE',  #222 ) ;
#136 = EDGE_CURVE ( 'NONE', #40, #40, #179, .T. ) ;
#137 = PRODUCT ( '52210', '52210', '', ( #186 ) ) ;
#138 = DIRECTION ( 'NONE',  ( 3.491481338843133355E-15, -1.224646799147353207E-16, 1.000000000000000000 ) ) ;
#139 = DIRECTION ( 'NONE',  ( 0.0000000000000000000, 1.000000000000000000, 0.0000000000000000000 ) ) ;
#140 = FACE_OUTER_BOUND ( 'NONE', #167, .T. ) ;
#141 = ADVANCED_FACE ( 'NONE', ( #142, #210 ), #177, .T. ) ;
#142 = FACE_OUTER_BOUND ( 'NONE', #187, .T. ) ;
#143 = APPROVAL_PERSON_ORGANIZATION ( #68, #144, #127 ) ;
#144 = APPROVAL ( #182, 'UNSPECIFIED' ) ;
#145 = DATE_AND_TIME ( #217, #37 ) ;
#146 = APPROVAL_STATUS ( 'not_yet_approved' ) ;
#147 =( GEOMETRIC_REPRESENTATION_CONTEXT ( 3 ) GLOBAL_UNCERTAINTY_ASSIGNED_CONTEXT ( ( #21 ) ) GLOBAL_UNIT_ASSIGNED_CONTEXT ( ( #124, #159, #211 ) ) REPRESENTATION_CONTEXT ( 'NONE', 'WORKASPACE' ) );
#148 = CALENDAR_DATE ( 2021, 8, 10 ) ;
#149 = ADVANCED_FACE ( 'NONE', ( #140 ), #18, .T. ) ;
#150 = CONICAL_SURFACE ( 'NONE', #131, 0.8000000000000010436, 0.7853981633974510546 ) ;
#151 = ORIENTED_EDGE ( 'NONE', *, *, #91, .T. ) ;
#152 = ORIENTED_EDGE ( 'NONE', *, *, #136, .T. ) ;
#153 = MANIFOLD_SOLID_BREP ( 'Corps-Déplacer/Copier1[1]', #198 ) ;
#154 = VERTEX_POINT ( 'NONE', #191 ) ;
#155 = CC_DESIGN_APPROVAL ( #107, ( #71 ) ) ;
#156 = CC_DESIGN_DATE_AND_TIME_ASSIGNMENT ( #94, #113, ( #71 ) ) ;
#157 = CARTESIAN_POINT ( 'NONE',  ( 1.326762908760390423E-13, -4.653657836759941941E-15, 38.00000000000000000 ) ) ;
#158 = FACE_BOUND ( 'NONE', #11, .T. ) ;
#159 =( NAMED_UNIT ( * ) PLANE_ANGLE_UNIT ( ) SI_UNIT ( $, .RADIAN. ) );
#160 = AXIS2_PLACEMENT_3D ( 'NONE', #194, #138, #6 ) ;
#161 = DESIGN_CONTEXT ( 'detailed design', #213, 'design' ) ;
#162 = COORDINATED_UNIVERSAL_TIME_OFFSET ( 1, 0, .AHEAD. ) ;
#163 = APPROVAL_DATE_TIME ( #145, #215 ) ;
#164 = CC_DESIGN_PERSON_AND_ORGANIZATION_ASSIGNMENT ( #133, #195, ( #60 ) ) ;
#165 = AXIS2_PLACEMENT_3D ( 'NONE', #1, #121, #7 ) ;
#166 = AXIS2_PLACEMENT_3D ( 'NONE', #178, #92, #208 ) ;
#167 = EDGE_LOOP ( 'NONE', ( #33 ) ) ;
#168 = PERSON_AND_ORGANIZATION_ROLE ( 'creator' ) ;
#169 = DIRECTION ( 'NONE',  ( 4.275831445896957731E-31, 1.000000000000000000, 1.224646799147353454E-16 ) ) ;
#170 = CC_DESIGN_PERSON_AND_ORGANIZATION_ASSIGNMENT ( #214, #221, ( #137 ) ) ;
#171 = CYLINDRICAL_SURFACE ( 'NONE', #93, 0.9999999999999988898 ) ;
#172 = ORIENTED_EDGE ( 'NONE', *, *, #98, .T. ) ;
#173 = DIRECTION ( 'NONE',  ( 0.0000000000000000000, 1.000000000000000000, 0.0000000000000000000 ) ) ;
#174 = PLANE ( 'NONE',  #165 ) ;
#175 = CIRCLE ( 'NONE', #119, 0.7999999999999983791 ) ;
#176 = DIRECTION ( 'NONE',  ( -3.491481338843133355E-15, 1.224646799147353207E-16, -1.000000000000000000 ) ) ;
#177 = CYLINDRICAL_SURFACE ( 'NONE', #99, 0.7999999999999984901 ) ;
#178 = CARTESIAN_POINT ( 'NONE',  ( 4.310726068062858306E-14, -1.511999168525820194E-15, 12.34641016151377713 ) ) ;
#179 = CIRCLE ( 'NONE', #81, 1.000000000000000888 ) ;
#180 = PERSON_AND_ORGANIZATION_ROLE ( 'creator' ) ;
#181 = APPROVAL_ROLE ( '' ) ;
#182 = APPROVAL_STATUS ( 'not_yet_approved' ) ;
#183 = LOCAL_TIME ( 7, 53, 59.00000000000000000, #78 ) ;
#184 = APPROVAL_STATUS ( 'not_yet_approved' ) ;
#185 = CARTESIAN_POINT ( 'NONE',  ( 1.326762908760390423E-13, -4.653657836759941941E-15, 38.00000000000000000 ) ) ;
#186 = MECHANICAL_CONTEXT ( 'NONE', #110, 'mechanical' ) ;
#187 = EDGE_LOOP ( 'NONE', ( #34 ) ) ;
#188 = ADVANCED_FACE ( 'NONE', ( #120 ), #174, .F. ) ;
#189 = DIRECTION ( 'NONE',  ( -3.491481338843133355E-15, 1.224646799147353207E-16, -1.000000000000000000 ) ) ;
#190 = DIRECTION ( 'NONE',  ( 4.275831445896958607E-31, 1.000000000000000000, 1.224646799147353207E-16 ) ) ;
#191 = CARTESIAN_POINT ( 'NONE',  ( 4.310726068062858306E-14, 0.9999999999999954481, 12.34641016151377713 ) ) ;
#192 = VERTEX_POINT ( 'NONE', #75 ) ;
#193 = ORGANIZATION ( 'UNSPECIFIED', 'UNSPECIFIED', '' ) ;
#194 = CARTESIAN_POINT ( 'NONE',  ( 4.189777606611760026E-14, 5.999039130647396220E-33, 12.00000000000000000 ) ) ;
#195 = PERSON_AND_ORGANIZATION_ROLE ( 'design_supplier' ) ;
#196 = APPROVAL_ROLE ( '' ) ;
#197 = PERSON_AND_ORGANIZATION ( #129, #193 ) ;
#198 = CLOSED_SHELL ( 'NONE', ( #188, #62, #52, #218, #57 ) ) ;
#199 = APPROVAL_PERSON_ORGANIZATION ( #79, #215, #196 ) ;
#200 = CC_DESIGN_PERSON_AND_ORGANIZATION_ASSIGNMENT ( #63, #128, ( #71 ) ) ;
#201 = ORIENTED_EDGE ( 'NONE', *, *, #91, .F. ) ;
#202 = ORIENTED_EDGE ( 'NONE', *, *, #4, .F. ) ;
#203 = APPROVAL_DATE_TIME ( #95, #107 ) ;
#204 = ADVANCED_FACE ( 'NONE', ( #20 ), #88, .T. ) ;
#205 = ORIENTED_EDGE ( 'NONE', *, *, #66, .F. ) ;
#206 = CARTESIAN_POINT ( 'NONE',  ( 1.326762908760390423E-13, 5.999039130647368167E-33, 38.00000000000000000 ) ) ;
#207 = CARTESIAN_POINT ( 'NONE',  ( 0.0000000000000000000, 0.0000000000000000000, 0.0000000000000000000 ) ) ;
#208 = DIRECTION ( 'NONE',  ( 0.0000000000000000000, -1.000000000000000000, 0.0000000000000000000 ) ) ;
#209 = FACE_OUTER_BOUND ( 'NONE', #73, .T. ) ;
#210 = FACE_OUTER_BOUND ( 'NONE', #117, .T. ) ;
#211 =( NAMED_UNIT ( * ) SI_UNIT ( $, .STERADIAN. ) SOLID_ANGLE_UNIT ( ) );
#212 = CALENDAR_DATE ( 2021, 8, 10 ) ;
#213 = APPLICATION_CONTEXT ( 'configuration controlled 3d designs of mechanical parts and assemblies' ) ;
#214 = PERSON_AND_ORGANIZATION ( #129, #193 ) ;
#215 = APPROVAL ( #146, 'UNSPECIFIED' ) ;
#216 = AXIS2_PLACEMENT_3D ( 'NONE', #185, #189, #116 ) ;
#217 = CALENDAR_DATE ( 2021, 8, 10 ) ;
#218 = ADVANCED_FACE ( 'NONE', ( #209, #158 ), #150, .T. ) ;
#219 = AXIS2_PLACEMENT_3D ( 'NONE', #89, #22, #108 ) ;
#220 = DATE_TIME_ROLE ( 'creation_date' ) ;
#221 = PERSON_AND_ORGANIZATION_ROLE ( 'design_owner' ) ;
#222 = AXIS2_PLACEMENT_3D ( 'NONE', #206, #53, #190 ) ;
#223 = ORIENTED_EDGE ( 'NONE', *, *, #4, .T. ) ;
ENDSEC;
END-ISO-10303-21;
