ISO-10303-21;
HEADER;
FILE_DESCRIPTION (( 'STEP AP203' ),
    '1' );
FILE_NAME ('52209.step',
    '2021-10-08T05:53:59',
    ( '' ),
    ( '' ),
    'SwSTEP 2.0',
    'SolidWorks 2019',
    '' );
FILE_SCHEMA (( 'CONFIG_CONTROL_DESIGN' ));
ENDSEC;

DATA;
#1 = PERSON_AND_ORGANIZATION ( #103, #100 ) ;
#2 = FACE_BOUND ( 'NONE', #112, .T. ) ;
#3 = DIRECTION ( 'NONE',  ( 0.0000000000000000000, 1.000000000000000000, 0.0000000000000000000 ) ) ;
#4 = CC_DESIGN_PERSON_AND_ORGANIZATION_ASSIGNMENT ( #102, #169, ( #161 ) ) ;
#5 = DIRECTION ( 'NONE',  ( -3.491481338843133355E-15, 1.224646799147353207E-16, -1.000000000000000000 ) ) ;
#6 = DIRECTION ( 'NONE',  ( 0.0000000000000000000, 1.000000000000000000, 0.0000000000000000000 ) ) ;
#7 = CIRCLE ( 'NONE', #205, 1.000000000000000888 ) ;
#8 = ORIENTED_EDGE ( 'NONE', *, *, #109, .F. ) ;
#9 = DIRECTION ( 'NONE',  ( 0.0000000000000000000, 1.000000000000000000, 0.0000000000000000000 ) ) ;
#10 = DIRECTION ( 'NONE',  ( 3.491481338843133355E-15, -1.224646799147353207E-16, 1.000000000000000000 ) ) ;
#11 = LOCAL_TIME ( 7, 53, 59.00000000000000000, #66 ) ;
#12 = CARTESIAN_POINT ( 'NONE',  ( 4.325844625744246459E-14, -1.517302044719445021E-15, 12.38971143170300060 ) ) ;
#13 = CARTESIAN_POINT ( 'NONE',  ( 0.0000000000000000000, 0.0000000000000000000, 0.0000000000000000000 ) ) ;
#14 = ADVANCED_FACE ( 'NONE', ( #75 ), #55, .F. ) ;
#15 = EDGE_LOOP ( 'NONE', ( #110 ) ) ;
#16 = PRODUCT_DEFINITION_SHAPE ( 'NONE', 'NONE',  #144 ) ;
#17 = EDGE_LOOP ( 'NONE', ( #41 ) ) ;
#18 = PERSON_AND_ORGANIZATION_ROLE ( 'design_supplier' ) ;
#19 = APPLICATION_CONTEXT ( 'configuration controlled 3d designs of mechanical parts and assemblies' ) ;
#20 = LOCAL_TIME ( 7, 53, 59.00000000000000000, #130 ) ;
#21 = APPROVAL_STATUS ( 'not_yet_approved' ) ;
#22 = DIRECTION ( 'NONE',  ( -4.275831445896958607E-31, -1.000000000000000000, -1.224646799147353207E-16 ) ) ;
#23 = ADVANCED_FACE ( 'NONE', ( #174 ), #91, .T. ) ;
#24 = LOCAL_TIME ( 7, 53, 59.00000000000000000, #202 ) ;
#25 = FACE_BOUND ( 'NONE', #84, .T. ) ;
#26 = DIRECTION ( 'NONE',  ( 4.275831445896958607E-31, 1.000000000000000000, 1.224646799147353207E-16 ) ) ;
#27 = PLANE ( 'NONE',  #164 ) ;
#28 = ORIENTED_EDGE ( 'NONE', *, *, #30, .T. ) ;
#29 = CARTESIAN_POINT ( 'NONE',  ( 1.562250960410035027E-15, -5.479638733412072760E-17, 0.4474464586219644158 ) ) ;
#30 = EDGE_CURVE ( 'NONE', #45, #45, #104, .T. ) ;
#31 = CARTESIAN_POINT ( 'NONE',  ( 1.562250960410035422E-15, 0.7749999999999988010, 0.4474464586219645268 ) ) ;
#32 = AXIS2_PLACEMENT_3D ( 'NONE', #214, #126, #121 ) ;
#33 = APPLICATION_CONTEXT ( 'configuration controlled 3d designs of mechanical parts and assemblies' ) ;
#34 = AXIS2_PLACEMENT_3D ( 'NONE', #13, #63, #82 ) ;
#35 = ADVANCED_FACE ( 'NONE', ( #93, #193 ), #141, .T. ) ;
#36 = APPROVAL_PERSON_ORGANIZATION ( #143, #175, #146 ) ;
#37 = EDGE_CURVE ( 'NONE', #99, #99, #7, .T. ) ;
#38 = CARTESIAN_POINT ( 'NONE',  ( 4.189777606611760026E-14, 5.811569157814671545E-33, 12.00000000000000000 ) ) ;
#39 = FACE_OUTER_BOUND ( 'NONE', #190, .T. ) ;
#40 = EDGE_LOOP ( 'NONE', ( #184 ) ) ;
#41 = ORIENTED_EDGE ( 'NONE', *, *, #109, .T. ) ;
#42 = ADVANCED_FACE ( 'NONE', ( #158, #39 ), #107, .T. ) ;
#43 = FACE_OUTER_BOUND ( 'NONE', #17, .T. ) ;
#44 = AXIS2_PLACEMENT_3D ( 'NONE', #142, #133, #182 ) ;
#45 = VERTEX_POINT ( 'NONE', #197 ) ;
#46 = AXIS2_PLACEMENT_3D ( 'NONE', #157, #10, #81 ) ;
#47 = COORDINATED_UNIVERSAL_TIME_OFFSET ( 1, 0, .AHEAD. ) ;
#48 = CALENDAR_DATE ( 2021, 8, 10 ) ;
#49 = EDGE_LOOP ( 'NONE', ( #204 ) ) ;
#50 = APPROVAL_ROLE ( '' ) ;
#51 = ADVANCED_FACE ( 'NONE', ( #215 ), #27, .F. ) ;
#52 = DIRECTION ( 'NONE',  ( 3.491481338843133355E-15, -1.224646799147353207E-16, 1.000000000000000000 ) ) ;
#53 = EDGE_LOOP ( 'NONE', ( #28 ) ) ;
#54 = AXIS2_PLACEMENT_3D ( 'NONE', #137, #212, #140 ) ;
#55 = PLANE ( 'NONE',  #68 ) ;
#56 = CARTESIAN_POINT ( 'NONE',  ( 0.0000000000000000000, 0.0000000000000000000, 0.0000000000000000000 ) ) ;
#57 = ORIENTED_EDGE ( 'NONE', *, *, #30, .F. ) ;
#58 = CC_DESIGN_APPROVAL ( #72, ( #105 ) ) ;
#59 = CARTESIAN_POINT ( 'NONE',  ( 1.319779946082704535E-13, 0.9999999999999963363, 37.79999999999999716 ) ) ;
#60 =( LENGTH_UNIT ( ) NAMED_UNIT ( * ) SI_UNIT ( .MILLI., .METRE. ) );
#61 = PERSON_AND_ORGANIZATION_ROLE ( 'creator' ) ;
#62 = APPROVAL_PERSON_ORGANIZATION ( #185, #72, #50 ) ;
#63 = DIRECTION ( 'NONE',  ( 0.0000000000000000000, 0.0000000000000000000, 1.000000000000000000 ) ) ;
#64 = DATE_AND_TIME ( #85, #189 ) ;
#65 = ADVANCED_FACE ( 'NONE', ( #155, #2 ), #132, .T. ) ;
#66 = COORDINATED_UNIVERSAL_TIME_OFFSET ( 1, 0, .AHEAD. ) ;
#67 = APPROVAL_ROLE ( '' ) ;
#68 = AXIS2_PLACEMENT_3D ( 'NONE', #38, #52, #176 ) ;
#69 = CARTESIAN_POINT ( 'NONE',  ( 1.326762908760390423E-13, -4.653657836759941941E-15, 38.00000000000000000 ) ) ;
#70 = ORIENTED_EDGE ( 'NONE', *, *, #118, .T. ) ;
#71 = DIRECTION ( 'NONE',  ( 3.491481338843133355E-15, -1.224646799147353207E-16, 1.000000000000000000 ) ) ;
#72 = APPROVAL ( #117, 'UNSPECIFIED' ) ;
#73 = LOCAL_TIME ( 7, 53, 59.00000000000000000, #47 ) ;
#74 = DIRECTION ( 'NONE',  ( -3.491481338843133355E-15, 1.224646799147353207E-16, -1.000000000000000000 ) ) ;
#75 = FACE_OUTER_BOUND ( 'NONE', #186, .T. ) ;
#76 =( NAMED_UNIT ( * ) PLANE_ANGLE_UNIT ( ) SI_UNIT ( $, .RADIAN. ) );
#77 = APPLICATION_PROTOCOL_DEFINITION ( 'international standard', 'config_control_design', 1994, #33 ) ;
#78 = MANIFOLD_SOLID_BREP ( 'Corps-Déplacer/Copier1[1]', #152 ) ;
#79 = APPROVAL_PERSON_ORGANIZATION ( #1, #154, #67 ) ;
#80 = VERTEX_POINT ( 'NONE', #31 ) ;
#81 = DIRECTION ( 'NONE',  ( 0.0000000000000000000, -1.000000000000000000, 0.0000000000000000000 ) ) ;
#82 = DIRECTION ( 'NONE',  ( 1.000000000000000000, 0.0000000000000000000, 0.0000000000000000000 ) ) ;
#83 = AXIS2_PLACEMENT_3D ( 'NONE', #123, #125, #26 ) ;
#84 = EDGE_LOOP ( 'NONE', ( #221 ) ) ;
#85 = CALENDAR_DATE ( 2021, 8, 10 ) ;
#86 = PERSON_AND_ORGANIZATION ( #103, #100 ) ;
#87 = DESIGN_CONTEXT ( 'detailed design', #33, 'design' ) ;
#88 = DIRECTION ( 'NONE',  ( 4.275831445896958607E-31, 1.000000000000000000, 1.224646799147353207E-16 ) ) ;
#89 = FACE_OUTER_BOUND ( 'NONE', #173, .T. ) ;
#90 = DIRECTION ( 'NONE',  ( 0.0000000000000000000, 1.000000000000000000, 0.0000000000000000000 ) ) ;
#91 = PLANE ( 'NONE',  #124 ) ;
#92 = CC_DESIGN_SECURITY_CLASSIFICATION ( #105, ( #161 ) ) ;
#93 = FACE_OUTER_BOUND ( 'NONE', #111, .T. ) ;
#94 = VERTEX_POINT ( 'NONE', #145 ) ;
#95 = UNCERTAINTY_MEASURE_WITH_UNIT (LENGTH_MEASURE( 1.000000000000000082E-05 ), #60, 'distance_accuracy_value', 'NONE');
#96 = PERSON_AND_ORGANIZATION ( #103, #100 ) ;
#97 = APPROVAL_DATE_TIME ( #148, #175 ) ;
#98 = CIRCLE ( 'NONE', #170, 0.9999999999999978906 ) ;
#99 = VERTEX_POINT ( 'NONE', #59 ) ;
#100 = ORGANIZATION ( 'UNSPECIFIED', 'UNSPECIFIED', '' ) ;
#101 = EDGE_CURVE ( 'NONE', #183, #183, #156, .T. ) ;
#102 = PERSON_AND_ORGANIZATION ( #103, #100 ) ;
#103 = PERSON ( 'UNSPECIFIED', 'UNSPECIFIED', 'UNSPECIFIED', ('UNSPECIFIED'), ('UNSPECIFIED'), ('UNSPECIFIED') ) ;
#104 = CIRCLE ( 'NONE', #119, 0.7749999999999994671 ) ;
#105 = SECURITY_CLASSIFICATION ( '', '', #166 ) ;
#106 = CC_DESIGN_PERSON_AND_ORGANIZATION_ASSIGNMENT ( #96, #163, ( #187 ) ) ;
#107 = CYLINDRICAL_SURFACE ( 'NONE', #208, 0.9999999999999993339 ) ;
#108 = CC_DESIGN_APPROVAL ( #154, ( #161 ) ) ;
#109 = EDGE_CURVE ( 'NONE', #80, #80, #136, .T. ) ;
#110 = ORIENTED_EDGE ( 'NONE', *, *, #118, .F. ) ;
#111 = EDGE_LOOP ( 'NONE', ( #8 ) ) ;
#112 = EDGE_LOOP ( 'NONE', ( #70 ) ) ;
#113 = AXIS2_PLACEMENT_3D ( 'NONE', #69, #210, #6 ) ;
#114 = VERTEX_POINT ( 'NONE', #131 ) ;
#115 = ADVANCED_FACE ( 'NONE', ( #25, #89 ), #139, .T. ) ;
#116 = CALENDAR_DATE ( 2021, 8, 10 ) ;
#117 = APPROVAL_STATUS ( 'not_yet_approved' ) ;
#118 = EDGE_CURVE ( 'NONE', #114, #114, #177, .T. ) ;
#119 = AXIS2_PLACEMENT_3D ( 'NONE', #195, #5, #90 ) ;
#120 = DATE_AND_TIME ( #151, #11 ) ;
#121 = DIRECTION ( 'NONE',  ( 4.970141791967067018E-31, 1.000000000000000000, 1.398970545142588267E-16 ) ) ;
#122 = PRODUCT_RELATED_PRODUCT_CATEGORY ( 'detail', '', ( #187 ) ) ;
#123 = CARTESIAN_POINT ( 'NONE',  ( 0.0000000000000000000, 0.0000000000000000000, 0.0000000000000000000 ) ) ;
#124 = AXIS2_PLACEMENT_3D ( 'NONE', #191, #71, #22 ) ;
#125 = DIRECTION ( 'NONE',  ( -3.491481338843133355E-15, 1.224646799147353207E-16, -1.000000000000000000 ) ) ;
#126 = DIRECTION ( 'NONE',  ( -3.491481338843133355E-15, 1.224646799147353207E-16, -1.000000000000000000 ) ) ;
#127 = DIRECTION ( 'NONE',  ( 4.275831445896957731E-31, 1.000000000000000000, 1.224646799147353207E-16 ) ) ;
#128 = CC_DESIGN_APPROVAL ( #175, ( #144 ) ) ;
#129 =( NAMED_UNIT ( * ) SI_UNIT ( $, .STERADIAN. ) SOLID_ANGLE_UNIT ( ) );
#130 = COORDINATED_UNIVERSAL_TIME_OFFSET ( 1, 0, .AHEAD. ) ;
#131 = CARTESIAN_POINT ( 'NONE',  ( 1.326762908760390423E-13, 0.7999999999999963807, 38.00000000000000000 ) ) ;
#132 = CONICAL_SURFACE ( 'NONE', #113, 0.8000000000000010436, 0.7853981633974510546 ) ;
#133 = DIRECTION ( 'NONE',  ( -3.491481338843133355E-15, 1.224646799147353207E-16, -1.000000000000000000 ) ) ;
#134 = APPLICATION_PROTOCOL_DEFINITION ( 'international standard', 'config_control_design', 1994, #19 ) ;
#135 = APPROVAL_DATE_TIME ( #168, #154 ) ;
#136 = CIRCLE ( 'NONE', #32, 0.7749999999999989120 ) ;
#137 = CARTESIAN_POINT ( 'NONE',  ( 4.189777606611760026E-14, -1.469576158976823947E-15, 12.00000000000000000 ) ) ;
#138 = DIRECTION ( 'NONE',  ( -3.491481338843133355E-15, 1.224646799147353207E-16, -1.000000000000000000 ) ) ;
#139 = CONICAL_SURFACE ( 'NONE', #46, 0.9999999999999978906, 0.5235987755982921543 ) ;
#140 = DIRECTION ( 'NONE',  ( 0.0000000000000000000, 1.000000000000000000, 0.0000000000000000000 ) ) ;
#141 = CYLINDRICAL_SURFACE ( 'NONE', #83, 0.7749999999999992450 ) ;
#142 = CARTESIAN_POINT ( 'NONE',  ( 1.326762908760390423E-13, -4.653657836759941941E-15, 38.00000000000000000 ) ) ;
#143 = PERSON_AND_ORGANIZATION ( #103, #100 ) ;
#144 = PRODUCT_DEFINITION ( 'UNKNOWN', '', #161, #87 ) ;
#145 = CARTESIAN_POINT ( 'NONE',  ( 4.325844625744246459E-14, 0.9999999999999963363, 12.38971143170300060 ) ) ;
#146 = APPROVAL_ROLE ( '' ) ;
#147 = CONICAL_SURFACE ( 'NONE', #213, 0.7749999999999989120, 1.047197551196592746 ) ;
#148 = DATE_AND_TIME ( #181, #20 ) ;
#149 = EDGE_CURVE ( 'NONE', #94, #94, #98, .T. ) ;
#150 = MANIFOLD_SOLID_BREP ( 'Corps-Déplacer/Copier1[2]', #199 ) ;
#151 = CALENDAR_DATE ( 2021, 8, 10 ) ;
#152 = CLOSED_SHELL ( 'NONE', ( #14, #115, #42, #65, #51 ) ) ;
#153 = DATE_TIME_ROLE ( 'creation_date' ) ;
#154 = APPROVAL ( #21, 'UNSPECIFIED' ) ;
#155 = FACE_OUTER_BOUND ( 'NONE', #49, .T. ) ;
#156 = CIRCLE ( 'NONE', #54, 0.7749999999999994671 ) ;
#157 = CARTESIAN_POINT ( 'NONE',  ( 4.325844625744246459E-14, -1.517302044719445021E-15, 12.38971143170300060 ) ) ;
#158 = FACE_OUTER_BOUND ( 'NONE', #40, .T. ) ;
#159 = CARTESIAN_POINT ( 'NONE',  ( 1.326762908760390423E-13, 5.999039130647368167E-33, 38.00000000000000000 ) ) ;
#160 = CC_DESIGN_PERSON_AND_ORGANIZATION_ASSIGNMENT ( #86, #219, ( #105 ) ) ;
#161 = PRODUCT_DEFINITION_FORMATION_WITH_SPECIFIED_SOURCE ( 'ANY', '', #187, .NOT_KNOWN. ) ;
#162 = DIRECTION ( 'NONE',  ( -3.491481338843133355E-15, 1.224646799147353207E-16, -1.000000000000000000 ) ) ;
#163 = PERSON_AND_ORGANIZATION_ROLE ( 'design_owner' ) ;
#164 = AXIS2_PLACEMENT_3D ( 'NONE', #159, #74, #88 ) ;
#165 = APPROVAL_STATUS ( 'not_yet_approved' ) ;
#166 = SECURITY_CLASSIFICATION_LEVEL ( 'unclassified' ) ;
#167 = ORIENTED_EDGE ( 'NONE', *, *, #37, .T. ) ;
#168 = DATE_AND_TIME ( #48, #24 ) ;
#169 = PERSON_AND_ORGANIZATION_ROLE ( 'creator' ) ;
#170 = AXIS2_PLACEMENT_3D ( 'NONE', #12, #178, #9 ) ;
#171 = CARTESIAN_POINT ( 'NONE',  ( 1.319779946082704535E-13, -4.629164900776995227E-15, 37.79999999999999716 ) ) ;
#172 = ORIENTED_EDGE ( 'NONE', *, *, #101, .T. ) ;
#173 = EDGE_LOOP ( 'NONE', ( #194 ) ) ;
#174 = FACE_OUTER_BOUND ( 'NONE', #209, .T. ) ;
#175 = APPROVAL ( #165, 'UNSPECIFIED' ) ;
#176 = DIRECTION ( 'NONE',  ( -4.275831445896958607E-31, -1.000000000000000000, -1.224646799147353207E-16 ) ) ;
#177 = CIRCLE ( 'NONE', #44, 0.8000000000000010436 ) ;
#178 = DIRECTION ( 'NONE',  ( -3.491481338843133355E-15, 1.224646799147353207E-16, -1.000000000000000000 ) ) ;
#179 = CC_DESIGN_PERSON_AND_ORGANIZATION_ASSIGNMENT ( #188, #18, ( #161 ) ) ;
#180 = MECHANICAL_CONTEXT ( 'NONE', #19, 'mechanical' ) ;
#181 = CALENDAR_DATE ( 2021, 8, 10 ) ;
#182 = DIRECTION ( 'NONE',  ( 0.0000000000000000000, 1.000000000000000000, 0.0000000000000000000 ) ) ;
#183 = VERTEX_POINT ( 'NONE', #198 ) ;
#184 = ORIENTED_EDGE ( 'NONE', *, *, #149, .F. ) ;
#185 = PERSON_AND_ORGANIZATION ( #103, #100 ) ;
#186 = EDGE_LOOP ( 'NONE', ( #172 ) ) ;
#187 = PRODUCT ( '52209', '52209', '', ( #180 ) ) ;
#188 = PERSON_AND_ORGANIZATION ( #103, #100 ) ;
#189 = LOCAL_TIME ( 7, 53, 59.00000000000000000, #222 ) ;
#190 = EDGE_LOOP ( 'NONE', ( #167 ) ) ;
#191 = CARTESIAN_POINT ( 'NONE',  ( 4.189777606611760026E-14, 5.811569157814671545E-33, 12.00000000000000000 ) ) ;
#192 = ADVANCED_FACE ( 'NONE', ( #43 ), #147, .T. ) ;
#193 = FACE_OUTER_BOUND ( 'NONE', #53, .T. ) ;
#194 = ORIENTED_EDGE ( 'NONE', *, *, #149, .T. ) ;
#195 = CARTESIAN_POINT ( 'NONE',  ( 4.189777606611760026E-14, -1.469576158976823947E-15, 12.00000000000000000 ) ) ;
#196 =( GEOMETRIC_REPRESENTATION_CONTEXT ( 3 ) GLOBAL_UNCERTAINTY_ASSIGNED_CONTEXT ( ( #95 ) ) GLOBAL_UNIT_ASSIGNED_CONTEXT ( ( #60, #76, #129 ) ) REPRESENTATION_CONTEXT ( 'NONE', 'WORKASPACE' ) );
#197 = CARTESIAN_POINT ( 'NONE',  ( 4.189777606611760026E-14, 0.7749999999999979128, 12.00000000000000000 ) ) ;
#198 = CARTESIAN_POINT ( 'NONE',  ( 4.189777606611760026E-14, 0.7749999999999979128, 12.00000000000000000 ) ) ;
#199 = CLOSED_SHELL ( 'NONE', ( #192, #35, #23 ) ) ;
#200 = CC_DESIGN_PERSON_AND_ORGANIZATION_ASSIGNMENT ( #217, #61, ( #144 ) ) ;
#201 = DIRECTION ( 'NONE',  ( -4.970141791967067018E-31, -1.000000000000000000, -1.398970545142588267E-16 ) ) ;
#202 = COORDINATED_UNIVERSAL_TIME_OFFSET ( 1, 0, .AHEAD. ) ;
#203 = APPROVAL_DATE_TIME ( #64, #72 ) ;
#204 = ORIENTED_EDGE ( 'NONE', *, *, #37, .F. ) ;
#205 = AXIS2_PLACEMENT_3D ( 'NONE', #171, #138, #3 ) ;
#206 = DATE_TIME_ROLE ( 'classification_date' ) ;
#207 = ADVANCED_BREP_SHAPE_REPRESENTATION ( '52209', ( #78, #150, #34 ), #196 ) ;
#208 = AXIS2_PLACEMENT_3D ( 'NONE', #56, #162, #127 ) ;
#209 = EDGE_LOOP ( 'NONE', ( #57 ) ) ;
#210 = DIRECTION ( 'NONE',  ( -3.491481338843133355E-15, 1.224646799147353207E-16, -1.000000000000000000 ) ) ;
#211 = CC_DESIGN_DATE_AND_TIME_ASSIGNMENT ( #218, #153, ( #144 ) ) ;
#212 = DIRECTION ( 'NONE',  ( -3.491481338843133355E-15, 1.224646799147353207E-16, -1.000000000000000000 ) ) ;
#213 = AXIS2_PLACEMENT_3D ( 'NONE', #29, #216, #201 ) ;
#214 = CARTESIAN_POINT ( 'NONE',  ( 1.562250960410035027E-15, -5.479638733412072760E-17, 0.4474464586219644158 ) ) ;
#215 = FACE_OUTER_BOUND ( 'NONE', #15, .T. ) ;
#216 = DIRECTION ( 'NONE',  ( 3.491481338843133355E-15, -1.224646799147353207E-16, 1.000000000000000000 ) ) ;
#217 = PERSON_AND_ORGANIZATION ( #103, #100 ) ;
#218 = DATE_AND_TIME ( #116, #73 ) ;
#219 = PERSON_AND_ORGANIZATION_ROLE ( 'classification_officer' ) ;
#220 = CC_DESIGN_DATE_AND_TIME_ASSIGNMENT ( #120, #206, ( #105 ) ) ;
#221 = ORIENTED_EDGE ( 'NONE', *, *, #101, .F. ) ;
#222 = COORDINATED_UNIVERSAL_TIME_OFFSET ( 1, 0, .AHEAD. ) ;
#223 = SHAPE_DEFINITION_REPRESENTATION ( #16, #207 ) ;
ENDSEC;
END-ISO-10303-21;
