ISO-10303-21;
HEADER;
FILE_DESCRIPTION (( 'STEP AP203' ),
    '1' );
FILE_NAME ('51736.step',
    '2021-11-24T06:51:43',
    ( '' ),
    ( '' ),
    'SwSTEP 2.0',
    'SolidWorks 2019',
    '' );
FILE_SCHEMA (( 'CONFIG_CONTROL_DESIGN' ));
ENDSEC;

DATA;
#1 = CARTESIAN_POINT ( 'NONE',  ( 0.0000000000000000000, 0.0000000000000000000, 0.0000000000000000000 ) ) ;
#2 = AXIS2_PLACEMENT_3D ( 'NONE', #86, #130, #212 ) ;
#3 = APPROVAL_ROLE ( '' ) ;
#4 = EDGE_LOOP ( 'NONE', ( #173 ) ) ;
#5 = ORIENTED_EDGE ( 'NONE', *, *, #142, .T. ) ;
#6 = LOCAL_TIME ( 7, 51, 43.00000000000000000, #138 ) ;
#7 = LOCAL_TIME ( 7, 51, 43.00000000000000000, #137 ) ;
#8 = CC_DESIGN_APPROVAL ( #158, ( #171 ) ) ;
#9 = CARTESIAN_POINT ( 'NONE',  ( 7.899199394900781374E-15, 1.308224723921575396E-15, 2.262420625601309521 ) ) ;
#10 = SECURITY_CLASSIFICATION_LEVEL ( 'unclassified' ) ;
#11 = DIRECTION ( 'NONE',  ( 0.0000000000000000000, -1.000000000000000000, 0.0000000000000000000 ) ) ;
#12 = DIRECTION ( 'NONE',  ( -3.491481338843133355E-15, 1.224646799147352961E-16, -1.000000000000000000 ) ) ;
#13 = LOCAL_TIME ( 7, 51, 43.00000000000000000, #109 ) ;
#14 = CYLINDRICAL_SURFACE ( 'NONE', #178, 1.500000000000000000 ) ;
#15 = APPROVAL_STATUS ( 'not_yet_approved' ) ;
#16 = FACE_BOUND ( 'NONE', #235, .T. ) ;
#17 = PRODUCT_DEFINITION_SHAPE ( 'NONE', 'NONE',  #228 ) ;
#18 = MECHANICAL_CONTEXT ( 'NONE', #38, 'mechanical' ) ;
#19 = CIRCLE ( 'NONE', #2, 0.04768584753741164639 ) ;
#20 = DIRECTION ( 'NONE',  ( 0.0000000000000000000, 0.0000000000000000000, 1.000000000000000000 ) ) ;
#21 = VERTEX_POINT ( 'NONE', #141 ) ;
#22 = PERSON_AND_ORGANIZATION ( #216, #167 ) ;
#23 = ORIENTED_EDGE ( 'NONE', *, *, #96, .T. ) ;
#24 = CIRCLE ( 'NONE', #205, 1.500000000000003109 ) ;
#25 = EDGE_LOOP ( 'NONE', ( #208 ) ) ;
#26 = FACE_OUTER_BOUND ( 'NONE', #210, .T. ) ;
#27 = DIRECTION ( 'NONE',  ( 3.491481338843133355E-15, -1.224646799147352961E-16, 1.000000000000000000 ) ) ;
#28 = DIRECTION ( 'NONE',  ( -3.491481338843133355E-15, 1.224646799147352961E-16, -1.000000000000000000 ) ) ;
#29 = DIRECTION ( 'NONE',  ( -3.491481338843133355E-15, 1.224646799147352961E-16, -1.000000000000000000 ) ) ;
#30 =( GEOMETRIC_REPRESENTATION_CONTEXT ( 3 ) GLOBAL_UNCERTAINTY_ASSIGNED_CONTEXT ( ( #202 ) ) GLOBAL_UNIT_ASSIGNED_CONTEXT ( ( #169, #184, #49 ) ) REPRESENTATION_CONTEXT ( 'NONE', 'WORKASPACE' ) );
#31 = DIRECTION ( 'NONE',  ( 0.0000000000000000000, 1.000000000000000000, 0.0000000000000000000 ) ) ;
#32 = APPROVAL_DATE_TIME ( #237, #187 ) ;
#33 = VERTEX_POINT ( 'NONE', #91 ) ;
#34 = CARTESIAN_POINT ( 'NONE',  ( 1.220786325696039374E-16, 0.04768584753741163945, 0.03496471002478662715 ) ) ;
#35 = CARTESIAN_POINT ( 'NONE',  ( 1.326762908760390423E-13, 8.998558695971097751E-33, 38.00000000000000000 ) ) ;
#36 = ADVANCED_FACE ( 'NONE', ( #186 ), #146, .T. ) ;
#37 = VERTEX_POINT ( 'NONE', #204 ) ;
#38 = APPLICATION_CONTEXT ( 'configuration controlled 3d designs of mechanical parts and assemblies' ) ;
#39 = CIRCLE ( 'NONE', #170, 0.7499999999999993339 ) ;
#40 = ORIENTED_EDGE ( 'NONE', *, *, #159, .F. ) ;
#41 = DIRECTION ( 'NONE',  ( -3.491481338843133355E-15, 1.224646799147352961E-16, -1.000000000000000000 ) ) ;
#42 = DIRECTION ( 'NONE',  ( -3.491481338843133355E-15, 1.224646799147352961E-16, -1.000000000000000000 ) ) ;
#43 = CIRCLE ( 'NONE', #128, 1.499999999999996891 ) ;
#44 = DIRECTION ( 'NONE',  ( -3.491481338843133355E-15, 1.224646799147352961E-16, -1.000000000000000000 ) ) ;
#45 = CARTESIAN_POINT ( 'NONE',  ( 2.367900757518974887E-14, -8.305477824363906558E-16, 6.781937314617165313 ) ) ;
#46 = FACE_OUTER_BOUND ( 'NONE', #172, .T. ) ;
#47 = CLOSED_SHELL ( 'NONE', ( #209, #98, #36 ) ) ;
#48 = CALENDAR_DATE ( 2021, 24, 11 ) ;
#49 =( NAMED_UNIT ( * ) SI_UNIT ( $, .STERADIAN. ) SOLID_ANGLE_UNIT ( ) );
#50 = VERTEX_POINT ( 'NONE', #68 ) ;
#51 = TOROIDAL_SURFACE ( 'NONE', #188, 8.749999999999998224, 8.000000000000000000 ) ;
#52 = PRODUCT ( '51736', '51736', '', ( #18 ) ) ;
#53 = CARTESIAN_POINT ( 'NONE',  ( 1.316288464743861212E-13, 1.499999999999998446, 37.69999999999999574 ) ) ;
#54 = APPROVAL_DATE_TIME ( #227, #158 ) ;
#55 = ORIENTED_EDGE ( 'NONE', *, *, #112, .T. ) ;
#56 = EDGE_LOOP ( 'NONE', ( #230 ) ) ;
#57 = LOCAL_TIME ( 7, 51, 43.00000000000000000, #143 ) ;
#58 = EDGE_LOOP ( 'NONE', ( #5 ) ) ;
#59 = DIRECTION ( 'NONE',  ( 0.0000000000000000000, 1.000000000000000000, 0.0000000000000000000 ) ) ;
#60 = DIRECTION ( 'NONE',  ( 1.000000000000000000, -8.298529501018599524E-33, -3.491481338843133355E-15 ) ) ;
#61 = CONICAL_SURFACE ( 'NONE', #70, 0.7500000000000000000, 0.3054326190990008794 ) ;
#62 = DIRECTION ( 'NONE',  ( 4.275831445896958607E-31, 1.000000000000000000, 1.224646799147352961E-16 ) ) ;
#63 = CARTESIAN_POINT ( 'NONE',  ( 0.0000000000000000000, 0.0000000000000000000, 0.0000000000000000000 ) ) ;
#64 = CARTESIAN_POINT ( 'NONE',  ( 7.899199394900781374E-15, 1.308224723921575396E-15, 2.262420625601309521 ) ) ;
#65 = CC_DESIGN_DATE_AND_TIME_ASSIGNMENT ( #108, #181, ( #228 ) ) ;
#66 = AXIS2_PLACEMENT_3D ( 'NONE', #199, #60, #133 ) ;
#67 = DESIGN_CONTEXT ( 'detailed design', #76, 'design' ) ;
#68 = CARTESIAN_POINT ( 'NONE',  ( 7.899199394900779797E-15, 0.7499999999999996669, 2.262420625601309077 ) ) ;
#69 = CARTESIAN_POINT ( 'NONE',  ( 1.187103655206665499E-14, 0.7499999999999988898, 3.400000000000000799 ) ) ;
#70 = AXIS2_PLACEMENT_3D ( 'NONE', #117, #214, #11 ) ;
#71 = VERTEX_POINT ( 'NONE', #53 ) ;
#72 = PERSON_AND_ORGANIZATION_ROLE ( 'design_supplier' ) ;
#73 = APPROVAL ( #93, 'UNSPECIFIED' ) ;
#74 = ORIENTED_EDGE ( 'NONE', *, *, #142, .F. ) ;
#75 = AXIS2_PLACEMENT_3D ( 'NONE', #1, #20, #165 ) ;
#76 = APPLICATION_CONTEXT ( 'configuration controlled 3d designs of mechanical parts and assemblies' ) ;
#77 = ADVANCED_BREP_SHAPE_REPRESENTATION ( '51736', ( #215, #131, #75 ), #30 ) ;
#78 = ADVANCED_FACE ( 'NONE', ( #26, #46 ), #102, .T. ) ;
#79 = ORIENTED_EDGE ( 'NONE', *, *, #183, .T. ) ;
#80 = AXIS2_PLACEMENT_3D ( 'NONE', #104, #28, #119 ) ;
#81 = APPROVAL_PERSON_ORGANIZATION ( #196, #187, #87 ) ;
#82 = DIRECTION ( 'NONE',  ( 0.0000000000000000000, 1.000000000000000000, 0.0000000000000000000 ) ) ;
#83 = CC_DESIGN_PERSON_AND_ORGANIZATION_ASSIGNMENT ( #123, #206, ( #52 ) ) ;
#84 = DIRECTION ( 'NONE',  ( 4.275831445896957731E-31, 1.000000000000000000, 1.224646799147353207E-16 ) ) ;
#85 = AXIS2_PLACEMENT_3D ( 'NONE', #35, #140, #139 ) ;
#86 = CARTESIAN_POINT ( 'NONE',  ( 1.220786325696039127E-16, -4.281942021497029572E-18, 0.03496471002478662021 ) ) ;
#87 = APPROVAL_ROLE ( '' ) ;
#88 = CARTESIAN_POINT ( 'NONE',  ( 1.326762908760390423E-13, -4.653657836759941152E-15, 38.00000000000000000 ) ) ;
#89 = CALENDAR_DATE ( 2021, 24, 11 ) ;
#90 = PERSON_AND_ORGANIZATION ( #216, #167 ) ;
#91 = CARTESIAN_POINT ( 'NONE',  ( 2.367900757518974887E-14, 1.499999999999996225, 6.781937314617165313 ) ) ;
#92 = CC_DESIGN_PERSON_AND_ORGANIZATION_ASSIGNMENT ( #124, #207, ( #171 ) ) ;
#93 = APPROVAL_STATUS ( 'not_yet_approved' ) ;
#94 = CC_DESIGN_APPROVAL ( #73, ( #228 ) ) ;
#95 = PERSON_AND_ORGANIZATION_ROLE ( 'creator' ) ;
#96 = EDGE_CURVE ( 'NONE', #122, #122, #39, .T. ) ;
#97 = CIRCLE ( 'NONE', #106, 1.200000000000003064 ) ;
#98 = ADVANCED_FACE ( 'NONE', ( #177, #175 ), #61, .T. ) ;
#99 = CC_DESIGN_PERSON_AND_ORGANIZATION_ASSIGNMENT ( #144, #72, ( #171 ) ) ;
#100 = ORIENTED_EDGE ( 'NONE', *, *, #174, .F. ) ;
#101 = CLOSED_SHELL ( 'NONE', ( #132, #78, #191, #155, #232, #241 ) ) ;
#102 = CYLINDRICAL_SURFACE ( 'NONE', #114, 0.7499999999999996669 ) ;
#103 = DIRECTION ( 'NONE',  ( -3.491481338843133355E-15, 1.224646799147352961E-16, -1.000000000000000000 ) ) ;
#104 = CARTESIAN_POINT ( 'NONE',  ( 7.899199394900779797E-15, -2.770666177467595382E-16, 2.262420625601309077 ) ) ;
#105 = DIRECTION ( 'NONE',  ( -4.275831445896957731E-31, -1.000000000000000000, -1.224646799147352961E-16 ) ) ;
#106 = AXIS2_PLACEMENT_3D ( 'NONE', #195, #44, #82 ) ;
#107 = DIRECTION ( 'NONE',  ( 0.0000000000000000000, 1.000000000000000000, 0.0000000000000000000 ) ) ;
#108 = DATE_AND_TIME ( #48, #6 ) ;
#109 = COORDINATED_UNIVERSAL_TIME_OFFSET ( 1, 0, .AHEAD. ) ;
#110 = DATE_AND_TIME ( #226, #57 ) ;
#111 = EDGE_LOOP ( 'NONE', ( #126 ) ) ;
#112 = EDGE_CURVE ( 'NONE', #71, #71, #24, .T. ) ;
#113 = PLANE ( 'NONE',  #185 ) ;
#114 = AXIS2_PLACEMENT_3D ( 'NONE', #63, #239, #62 ) ;
#115 = FACE_OUTER_BOUND ( 'NONE', #233, .T. ) ;
#116 = PERSON_AND_ORGANIZATION ( #216, #167 ) ;
#117 = CARTESIAN_POINT ( 'NONE',  ( 7.899199394900779797E-15, -2.770666177467595382E-16, 2.262420625601309077 ) ) ;
#118 = DATE_TIME_ROLE ( 'classification_date' ) ;
#119 = DIRECTION ( 'NONE',  ( 0.0000000000000000000, 1.000000000000000000, 0.0000000000000000000 ) ) ;
#120 = VERTEX_POINT ( 'NONE', #34 ) ;
#121 = APPLICATION_PROTOCOL_DEFINITION ( 'international standard', 'config_control_design', 1994, #76 ) ;
#122 = VERTEX_POINT ( 'NONE', #69 ) ;
#123 = PERSON_AND_ORGANIZATION ( #216, #167 ) ;
#124 = PERSON_AND_ORGANIZATION ( #216, #167 ) ;
#125 = ORIENTED_EDGE ( 'NONE', *, *, #134, .T. ) ;
#126 = ORIENTED_EDGE ( 'NONE', *, *, #134, .F. ) ;
#127 = EDGE_LOOP ( 'NONE', ( #100 ) ) ;
#128 = AXIS2_PLACEMENT_3D ( 'NONE', #45, #103, #31 ) ;
#129 = EDGE_LOOP ( 'NONE', ( #74 ) ) ;
#130 = DIRECTION ( 'NONE',  ( -3.491481338843133355E-15, 1.224646799147352961E-16, -1.000000000000000000 ) ) ;
#131 = MANIFOLD_SOLID_BREP ( 'Corps-Déplacer/Copier2[2]', #47 ) ;
#132 = ADVANCED_FACE ( 'NONE', ( #152 ), #113, .F. ) ;
#133 = DIRECTION ( 'NONE',  ( 4.814824860968083502E-31, 1.000000000000000000, 1.355252715606878817E-16 ) ) ;
#134 = EDGE_CURVE ( 'NONE', #37, #37, #97, .T. ) ;
#135 = DIRECTION ( 'NONE',  ( 3.491481338843133355E-15, -1.224646799147352961E-16, 1.000000000000000000 ) ) ;
#136 = SPHERICAL_SURFACE ( 'NONE', #66, 0.05000000000000006523 ) ;
#137 = COORDINATED_UNIVERSAL_TIME_OFFSET ( 1, 0, .AHEAD. ) ;
#138 = COORDINATED_UNIVERSAL_TIME_OFFSET ( 1, 0, .AHEAD. ) ;
#139 = DIRECTION ( 'NONE',  ( 4.275831445896957731E-31, 1.000000000000000000, 1.224646799147352961E-16 ) ) ;
#140 = DIRECTION ( 'NONE',  ( -3.491481338843133355E-15, 1.224646799147352961E-16, -1.000000000000000000 ) ) ;
#141 = CARTESIAN_POINT ( 'NONE',  ( 7.899199394900779797E-15, 0.7499999999999996669, 2.262420625601309077 ) ) ;
#142 = EDGE_CURVE ( 'NONE', #21, #21, #164, .T. ) ;
#143 = COORDINATED_UNIVERSAL_TIME_OFFSET ( 1, 0, .AHEAD. ) ;
#144 = PERSON_AND_ORGANIZATION ( #216, #167 ) ;
#145 = CC_DESIGN_PERSON_AND_ORGANIZATION_ASSIGNMENT ( #116, #218, ( #193 ) ) ;
#146 = PLANE ( 'NONE',  #229 ) ;
#147 = CONICAL_SURFACE ( 'NONE', #225, 1.200000000000003064, 0.7853981633974453924 ) ;
#148 = PRODUCT_RELATED_PRODUCT_CATEGORY ( 'detail', '', ( #52 ) ) ;
#149 = EDGE_LOOP ( 'NONE', ( #231 ) ) ;
#150 = EDGE_LOOP ( 'NONE', ( #55 ) ) ;
#151 = ORIENTED_EDGE ( 'NONE', *, *, #174, .T. ) ;
#152 = FACE_OUTER_BOUND ( 'NONE', #149, .T. ) ;
#153 = COORDINATED_UNIVERSAL_TIME_OFFSET ( 1, 0, .AHEAD. ) ;
#154 = FACE_OUTER_BOUND ( 'NONE', #25, .T. ) ;
#155 = ADVANCED_FACE ( 'NONE', ( #154, #238 ), #14, .T. ) ;
#156 = CIRCLE ( 'NONE', #220, 0.7500000000000000000 ) ;
#157 = DIRECTION ( 'NONE',  ( -3.491481338843133355E-15, 1.224646799147352961E-16, -1.000000000000000000 ) ) ;
#158 = APPROVAL ( #243, 'UNSPECIFIED' ) ;
#159 = EDGE_CURVE ( 'NONE', #50, #50, #156, .T. ) ;
#160 = FACE_OUTER_BOUND ( 'NONE', #56, .T. ) ;
#161 = DIRECTION ( 'NONE',  ( 0.0000000000000000000, 1.000000000000000000, 0.0000000000000000000 ) ) ;
#162 = SHAPE_DEFINITION_REPRESENTATION ( #17, #77 ) ;
#163 = APPROVAL_ROLE ( '' ) ;
#164 = CIRCLE ( 'NONE', #80, 0.7500000000000000000 ) ;
#165 = DIRECTION ( 'NONE',  ( 1.000000000000000000, 0.0000000000000000000, 0.0000000000000000000 ) ) ;
#166 = PLANE ( 'NONE',  #85 ) ;
#167 = ORGANIZATION ( 'UNSPECIFIED', 'UNSPECIFIED', '' ) ;
#168 = CC_DESIGN_PERSON_AND_ORGANIZATION_ASSIGNMENT ( #22, #95, ( #228 ) ) ;
#169 =( LENGTH_UNIT ( ) NAMED_UNIT ( * ) SI_UNIT ( .MILLI., .METRE. ) );
#170 = AXIS2_PLACEMENT_3D ( 'NONE', #176, #29, #107 ) ;
#171 = PRODUCT_DEFINITION_FORMATION_WITH_SPECIFIED_SOURCE ( 'ANY', '', #52, .NOT_KNOWN. ) ;
#172 = EDGE_LOOP ( 'NONE', ( #23 ) ) ;
#173 = ORIENTED_EDGE ( 'NONE', *, *, #112, .F. ) ;
#174 = EDGE_CURVE ( 'NONE', #120, #120, #19, .T. ) ;
#175 = FACE_OUTER_BOUND ( 'NONE', #58, .T. ) ;
#176 = CARTESIAN_POINT ( 'NONE',  ( 1.187103655206665499E-14, -4.163799117101000559E-16, 3.400000000000000799 ) ) ;
#177 = FACE_BOUND ( 'NONE', #127, .T. ) ;
#178 = AXIS2_PLACEMENT_3D ( 'NONE', #192, #12, #84 ) ;
#179 = DIRECTION ( 'NONE',  ( -4.275831445896957731E-31, -1.000000000000000000, -1.224646799147352961E-16 ) ) ;
#180 = FACE_OUTER_BOUND ( 'NONE', #4, .T. ) ;
#181 = DATE_TIME_ROLE ( 'creation_date' ) ;
#182 = CC_DESIGN_SECURITY_CLASSIFICATION ( #193, ( #171 ) ) ;
#183 = EDGE_CURVE ( 'NONE', #33, #33, #43, .T. ) ;
#184 =( NAMED_UNIT ( * ) PLANE_ANGLE_UNIT ( ) SI_UNIT ( $, .RADIAN. ) );
#185 = AXIS2_PLACEMENT_3D ( 'NONE', #9, #27, #105 ) ;
#186 = FACE_OUTER_BOUND ( 'NONE', #129, .T. ) ;
#187 = APPROVAL ( #15, 'UNSPECIFIED' ) ;
#188 = AXIS2_PLACEMENT_3D ( 'NONE', #240, #42, #197 ) ;
#189 = CC_DESIGN_APPROVAL ( #187, ( #193 ) ) ;
#190 = EDGE_LOOP ( 'NONE', ( #79 ) ) ;
#191 = ADVANCED_FACE ( 'NONE', ( #219, #160 ), #51, .F. ) ;
#192 = CARTESIAN_POINT ( 'NONE',  ( 0.0000000000000000000, 0.0000000000000000000, 0.0000000000000000000 ) ) ;
#193 = SECURITY_CLASSIFICATION ( '', '', #10 ) ;
#194 = DIRECTION ( 'NONE',  ( 0.0000000000000000000, 1.000000000000000000, 0.0000000000000000000 ) ) ;
#195 = CARTESIAN_POINT ( 'NONE',  ( 1.326762908760390423E-13, -4.653657836759941152E-15, 38.00000000000000000 ) ) ;
#196 = PERSON_AND_ORGANIZATION ( #216, #167 ) ;
#197 = DIRECTION ( 'NONE',  ( 4.355100981429075892E-31, 1.000000000000000000, 1.224646799147352961E-16 ) ) ;
#198 = DATE_AND_TIME ( #89, #7 ) ;
#199 = CARTESIAN_POINT ( 'NONE',  ( 1.745740669421566678E-16, -6.123233995736766344E-18, 0.04999999999999999584 ) ) ;
#200 = CALENDAR_DATE ( 2021, 24, 11 ) ;
#201 = PERSON_AND_ORGANIZATION ( #216, #167 ) ;
#202 = UNCERTAINTY_MEASURE_WITH_UNIT (LENGTH_MEASURE( 1.000000000000000082E-05 ), #169, 'distance_accuracy_value', 'NONE');
#203 = APPROVAL_DATE_TIME ( #110, #73 ) ;
#204 = CARTESIAN_POINT ( 'NONE',  ( 1.326762908760390423E-13, 1.199999999999998623, 38.00000000000000000 ) ) ;
#205 = AXIS2_PLACEMENT_3D ( 'NONE', #217, #41, #194 ) ;
#206 = PERSON_AND_ORGANIZATION_ROLE ( 'design_owner' ) ;
#207 = PERSON_AND_ORGANIZATION_ROLE ( 'creator' ) ;
#208 = ORIENTED_EDGE ( 'NONE', *, *, #183, .F. ) ;
#209 = ADVANCED_FACE ( 'NONE', ( #115 ), #136, .T. ) ;
#210 = EDGE_LOOP ( 'NONE', ( #40 ) ) ;
#211 = DIRECTION ( 'NONE',  ( -3.491481338843133355E-15, 1.224646799147352961E-16, -1.000000000000000000 ) ) ;
#212 = DIRECTION ( 'NONE',  ( 5.048484099177064226E-31, 1.000000000000000000, 1.421021944239981289E-16 ) ) ;
#213 = APPROVAL_PERSON_ORGANIZATION ( #201, #73, #3 ) ;
#214 = DIRECTION ( 'NONE',  ( 3.491481338843133355E-15, -1.224646799147352961E-16, 1.000000000000000000 ) ) ;
#215 = MANIFOLD_SOLID_BREP ( 'Corps-Déplacer/Copier2[1]', #101 ) ;
#216 = PERSON ( 'UNSPECIFIED', 'UNSPECIFIED', 'UNSPECIFIED', ('UNSPECIFIED'), ('UNSPECIFIED'), ('UNSPECIFIED') ) ;
#217 = CARTESIAN_POINT ( 'NONE',  ( 1.316288464743861212E-13, -4.616918432785520292E-15, 37.69999999999999574 ) ) ;
#218 = PERSON_AND_ORGANIZATION_ROLE ( 'classification_officer' ) ;
#219 = FACE_OUTER_BOUND ( 'NONE', #190, .T. ) ;
#220 = AXIS2_PLACEMENT_3D ( 'NONE', #236, #157, #59 ) ;
#221 = LOCAL_TIME ( 7, 51, 43.00000000000000000, #153 ) ;
#222 = CC_DESIGN_DATE_AND_TIME_ASSIGNMENT ( #198, #118, ( #193 ) ) ;
#223 = APPLICATION_PROTOCOL_DEFINITION ( 'international standard', 'config_control_design', 1994, #38 ) ;
#224 = FACE_OUTER_BOUND ( 'NONE', #111, .T. ) ;
#225 = AXIS2_PLACEMENT_3D ( 'NONE', #88, #211, #161 ) ;
#226 = CALENDAR_DATE ( 2021, 24, 11 ) ;
#227 = DATE_AND_TIME ( #242, #13 ) ;
#228 = PRODUCT_DEFINITION ( 'UNKNOWN', '', #171, #67 ) ;
#229 = AXIS2_PLACEMENT_3D ( 'NONE', #64, #135, #179 ) ;
#230 = ORIENTED_EDGE ( 'NONE', *, *, #96, .F. ) ;
#231 = ORIENTED_EDGE ( 'NONE', *, *, #159, .T. ) ;
#232 = ADVANCED_FACE ( 'NONE', ( #180, #16 ), #147, .T. ) ;
#233 = EDGE_LOOP ( 'NONE', ( #151 ) ) ;
#234 = APPROVAL_PERSON_ORGANIZATION ( #90, #158, #163 ) ;
#235 = EDGE_LOOP ( 'NONE', ( #125 ) ) ;
#236 = CARTESIAN_POINT ( 'NONE',  ( 7.899199394900779797E-15, -2.770666177467595382E-16, 2.262420625601309077 ) ) ;
#237 = DATE_AND_TIME ( #200, #221 ) ;
#238 = FACE_OUTER_BOUND ( 'NONE', #150, .T. ) ;
#239 = DIRECTION ( 'NONE',  ( -3.491481338843133355E-15, 1.224646799147352961E-16, -1.000000000000000000 ) ) ;
#240 = CARTESIAN_POINT ( 'NONE',  ( 1.187103655206665183E-14, 0.0000000000000000000, 3.399999999999999911 ) ) ;
#241 = ADVANCED_FACE ( 'NONE', ( #224 ), #166, .F. ) ;
#242 = CALENDAR_DATE ( 2021, 24, 11 ) ;
#243 = APPROVAL_STATUS ( 'not_yet_approved' ) ;
ENDSEC;
END-ISO-10303-21;
