ISO-10303-21;
HEADER;
FILE_DESCRIPTION (( 'STEP AP203' ),
    '1' );
FILE_NAME ('51735.step',
    '2021-11-24T06:51:45',
    ( '' ),
    ( '' ),
    'SwSTEP 2.0',
    'SolidWorks 2019',
    '' );
FILE_SCHEMA (( 'CONFIG_CONTROL_DESIGN' ));
ENDSEC;

DATA;
#1 = EDGE_LOOP ( 'NONE', ( #243 ) ) ;
#2 = CIRCLE ( 'NONE', #142, 0.7499999999999993339 ) ;
#3 = AXIS2_PLACEMENT_3D ( 'NONE', #231, #137, #43 ) ;
#4 = CALENDAR_DATE ( 2021, 24, 11 ) ;
#5 = DIRECTION ( 'NONE',  ( -3.491481338843133355E-15, 1.224646799147352961E-16, -1.000000000000000000 ) ) ;
#6 = CARTESIAN_POINT ( 'NONE',  ( 0.0000000000000000000, 0.0000000000000000000, 0.0000000000000000000 ) ) ;
#7 = CYLINDRICAL_SURFACE ( 'NONE', #173, 0.7499999999999995559 ) ;
#8 = TOROIDAL_SURFACE ( 'NONE', #210, 8.749999999999998224, 8.000000000000000000 ) ;
#9 = CARTESIAN_POINT ( 'NONE',  ( 6.982962677686266711E-16, -2.449293598294706538E-17, 0.2000000000000000111 ) ) ;
#10 = CC_DESIGN_PERSON_AND_ORGANIZATION_ASSIGNMENT ( #117, #129, ( #199 ) ) ;
#11 = DIRECTION ( 'NONE',  ( 3.491481338843133355E-15, -1.224646799147352961E-16, 1.000000000000000000 ) ) ;
#12 = FACE_OUTER_BOUND ( 'NONE', #80, .T. ) ;
#13 = AXIS2_PLACEMENT_3D ( 'NONE', #172, #5, #213 ) ;
#14 = AXIS2_PLACEMENT_3D ( 'NONE', #218, #216, #16 ) ;
#15 = PRODUCT_RELATED_PRODUCT_CATEGORY ( 'detail', '', ( #227 ) ) ;
#16 = DIRECTION ( 'NONE',  ( 1.000000000000000000, 0.0000000000000000000, 0.0000000000000000000 ) ) ;
#17 = FACE_BOUND ( 'NONE', #57, .T. ) ;
#18 = CARTESIAN_POINT ( 'NONE',  ( 1.316288464743861212E-13, 1.499999999999998446, 37.69999999999999574 ) ) ;
#19 = APPLICATION_PROTOCOL_DEFINITION ( 'international standard', 'config_control_design', 1994, #78 ) ;
#20 = COORDINATED_UNIVERSAL_TIME_OFFSET ( 1, 0, .AHEAD. ) ;
#21 = ORIENTED_EDGE ( 'NONE', *, *, #66, .F. ) ;
#22 = CARTESIAN_POINT ( 'NONE',  ( 6.681278429250708218E-15, -2.343477008330574505E-16, 1.913594197087841620 ) ) ;
#23 = APPROVAL_DATE_TIME ( #233, #126 ) ;
#24 = DIRECTION ( 'NONE',  ( 5.048484099177083494E-31, 1.000000000000000000, 1.421021944239986712E-16 ) ) ;
#25 = DIRECTION ( 'NONE',  ( 0.0000000000000000000, 1.000000000000000000, 0.0000000000000000000 ) ) ;
#26 = DIRECTION ( 'NONE',  ( -3.491481338843133355E-15, 1.224646799147352961E-16, -1.000000000000000000 ) ) ;
#27 = AXIS2_PLACEMENT_3D ( 'NONE', #192, #234, #24 ) ;
#28 = PLANE ( 'NONE',  #110 ) ;
#29 = CC_DESIGN_PERSON_AND_ORGANIZATION_ASSIGNMENT ( #148, #44, ( #70 ) ) ;
#30 = CALENDAR_DATE ( 2021, 24, 11 ) ;
#31 = PERSON ( 'UNSPECIFIED', 'UNSPECIFIED', 'UNSPECIFIED', ('UNSPECIFIED'), ('UNSPECIFIED'), ('UNSPECIFIED') ) ;
#32 = DIRECTION ( 'NONE',  ( -3.491481338843133355E-15, 1.224646799147352961E-16, -1.000000000000000000 ) ) ;
#33 = CIRCLE ( 'NONE', #13, 0.7499999999999997780 ) ;
#34 = EDGE_LOOP ( 'NONE', ( #55 ) ) ;
#35 = VERTEX_POINT ( 'NONE', #204 ) ;
#36 = EDGE_LOOP ( 'NONE', ( #39 ) ) ;
#37 = CALENDAR_DATE ( 2021, 24, 11 ) ;
#38 = UNCERTAINTY_MEASURE_WITH_UNIT (LENGTH_MEASURE( 1.000000000000000082E-05 ), #177, 'distance_accuracy_value', 'NONE');
#39 = ORIENTED_EDGE ( 'NONE', *, *, #72, .T. ) ;
#40 = PERSON_AND_ORGANIZATION ( #31, #73 ) ;
#41 = CARTESIAN_POINT ( 'NONE',  ( 6.681278429250709007E-15, 5.532594628635449105E-16, 1.913594197087841842 ) ) ;
#42 = APPROVAL_ROLE ( '' ) ;
#43 = DIRECTION ( 'NONE',  ( 0.0000000000000000000, 1.000000000000000000, 0.0000000000000000000 ) ) ;
#44 = PERSON_AND_ORGANIZATION_ROLE ( 'creator' ) ;
#45 = DIRECTION ( 'NONE',  ( 4.275831445896957731E-31, 1.000000000000000000, 1.224646799147353207E-16 ) ) ;
#46 = ADVANCED_FACE ( 'NONE', ( #17, #97 ), #82, .T. ) ;
#47 = DIRECTION ( 'NONE',  ( 0.0000000000000000000, 1.000000000000000000, 0.0000000000000000000 ) ) ;
#48 = DIRECTION ( 'NONE',  ( 3.491481338843133355E-15, -1.224646799147352961E-16, 1.000000000000000000 ) ) ;
#49 = CLOSED_SHELL ( 'NONE', ( #79, #200, #236, #112, #153, #150 ) ) ;
#50 = APPROVAL_STATUS ( 'not_yet_approved' ) ;
#51 = PERSON_AND_ORGANIZATION_ROLE ( 'design_owner' ) ;
#52 = LOCAL_TIME ( 7, 51, 45.00000000000000000, #108 ) ;
#53 = APPROVAL_DATE_TIME ( #240, #154 ) ;
#54 = LOCAL_TIME ( 7, 51, 45.00000000000000000, #56 ) ;
#55 = ORIENTED_EDGE ( 'NONE', *, *, #100, .T. ) ;
#56 = COORDINATED_UNIVERSAL_TIME_OFFSET ( 1, 0, .AHEAD. ) ;
#57 = EDGE_LOOP ( 'NONE', ( #205 ) ) ;
#58 = ADVANCED_FACE ( 'NONE', ( #155 ), #85, .T. ) ;
#59 = CALENDAR_DATE ( 2021, 24, 11 ) ;
#60 = AXIS2_PLACEMENT_3D ( 'NONE', #124, #237, #25 ) ;
#61 = PERSON_AND_ORGANIZATION_ROLE ( 'classification_officer' ) ;
#62 = APPROVAL ( #136, 'UNSPECIFIED' ) ;
#63 = CARTESIAN_POINT ( 'NONE',  ( 6.681278429250709007E-15, 5.532594628635449105E-16, 1.913594197087841842 ) ) ;
#64 = CARTESIAN_POINT ( 'NONE',  ( 1.187103655206665499E-14, -4.163799117101000559E-16, 3.400000000000000799 ) ) ;
#65 = DIRECTION ( 'NONE',  ( -3.491481338843133355E-15, 1.224646799147352961E-16, -1.000000000000000000 ) ) ;
#66 = EDGE_CURVE ( 'NONE', #95, #95, #101, .T. ) ;
#67 = DIRECTION ( 'NONE',  ( -3.491481338843133355E-15, 1.224646799147352961E-16, -1.000000000000000000 ) ) ;
#68 = DIRECTION ( 'NONE',  ( 4.275831445896958607E-31, 1.000000000000000000, 1.224646799147352961E-16 ) ) ;
#69 = DATE_AND_TIME ( #37, #52 ) ;
#70 = PRODUCT_DEFINITION_FORMATION_WITH_SPECIFIED_SOURCE ( 'ANY', '', #227, .NOT_KNOWN. ) ;
#71 = VERTEX_POINT ( 'NONE', #98 ) ;
#72 = EDGE_CURVE ( 'NONE', #74, #74, #179, .T. ) ;
#73 = ORGANIZATION ( 'UNSPECIFIED', 'UNSPECIFIED', '' ) ;
#74 = VERTEX_POINT ( 'NONE', #181 ) ;
#75 = EDGE_LOOP ( 'NONE', ( #201 ) ) ;
#76 = DATE_TIME_ROLE ( 'creation_date' ) ;
#77 = CONICAL_SURFACE ( 'NONE', #229, 1.200000000000003064, 0.7853981633974453924 ) ;
#78 = APPLICATION_CONTEXT ( 'configuration controlled 3d designs of mechanical parts and assemblies' ) ;
#79 = ADVANCED_FACE ( 'NONE', ( #193 ), #230, .F. ) ;
#80 = EDGE_LOOP ( 'NONE', ( #187 ) ) ;
#81 = CC_DESIGN_PERSON_AND_ORGANIZATION_ASSIGNMENT ( #225, #61, ( #111 ) ) ;
#82 = CONICAL_SURFACE ( 'NONE', #214, 0.7499999999999997780, 0.3054326190990009904 ) ;
#83 = ORIENTED_EDGE ( 'NONE', *, *, #186, .F. ) ;
#84 = DIRECTION ( 'NONE',  ( 3.491481338843133355E-15, -1.224646799147352961E-16, 1.000000000000000000 ) ) ;
#85 = PLANE ( 'NONE',  #92 ) ;
#86 = DIRECTION ( 'NONE',  ( -3.491481338843133355E-15, 1.224646799147352961E-16, -1.000000000000000000 ) ) ;
#87 =( GEOMETRIC_REPRESENTATION_CONTEXT ( 3 ) GLOBAL_UNCERTAINTY_ASSIGNED_CONTEXT ( ( #38 ) ) GLOBAL_UNIT_ASSIGNED_CONTEXT ( ( #177, #220, #238 ) ) REPRESENTATION_CONTEXT ( 'NONE', 'WORKASPACE' ) );
#88 = FACE_OUTER_BOUND ( 'NONE', #184, .T. ) ;
#89 = EDGE_CURVE ( 'NONE', #183, #183, #2, .T. ) ;
#90 = DIRECTION ( 'NONE',  ( -4.275831445896957731E-31, -1.000000000000000000, -1.224646799147352961E-16 ) ) ;
#91 = DIRECTION ( 'NONE',  ( 4.355100981429075892E-31, 1.000000000000000000, 1.224646799147352961E-16 ) ) ;
#92 = AXIS2_PLACEMENT_3D ( 'NONE', #41, #11, #90 ) ;
#93 = CC_DESIGN_APPROVAL ( #62, ( #111 ) ) ;
#94 = MANIFOLD_SOLID_BREP ( 'Corps-Déplacer/Copier2[1]', #49 ) ;
#95 = VERTEX_POINT ( 'NONE', #156 ) ;
#96 = MANIFOLD_SOLID_BREP ( 'Corps-Déplacer/Copier2[2]', #149 ) ;
#97 = FACE_OUTER_BOUND ( 'NONE', #34, .T. ) ;
#98 = CARTESIAN_POINT ( 'NONE',  ( 1.326762908760390423E-13, 1.199999999999998623, 38.00000000000000000 ) ) ;
#99 = PERSON_AND_ORGANIZATION_ROLE ( 'design_supplier' ) ;
#100 = EDGE_CURVE ( 'NONE', #145, #145, #33, .T. ) ;
#101 = CIRCLE ( 'NONE', #147, 0.7499999999999997780 ) ;
#102 = CARTESIAN_POINT ( 'NONE',  ( 6.681278429250708218E-15, -2.343477008330574505E-16, 1.913594197087841620 ) ) ;
#103 = FACE_BOUND ( 'NONE', #182, .T. ) ;
#104 = FACE_OUTER_BOUND ( 'NONE', #165, .T. ) ;
#105 = FACE_OUTER_BOUND ( 'NONE', #1, .T. ) ;
#106 = APPROVAL_PERSON_ORGANIZATION ( #40, #62, #42 ) ;
#107 = DIRECTION ( 'NONE',  ( 0.0000000000000000000, 1.000000000000000000, 0.0000000000000000000 ) ) ;
#108 = COORDINATED_UNIVERSAL_TIME_OFFSET ( 1, 0, .AHEAD. ) ;
#109 = COORDINATED_UNIVERSAL_TIME_OFFSET ( 1, 0, .AHEAD. ) ;
#110 = AXIS2_PLACEMENT_3D ( 'NONE', #175, #123, #151 ) ;
#111 = SECURITY_CLASSIFICATION ( '', '', #164 ) ;
#112 = ADVANCED_FACE ( 'NONE', ( #104, #105 ), #190, .T. ) ;
#113 = AXIS2_PLACEMENT_3D ( 'NONE', #168, #86, #207 ) ;
#114 = CIRCLE ( 'NONE', #3, 1.200000000000003064 ) ;
#115 = APPROVAL_ROLE ( '' ) ;
#116 = EDGE_LOOP ( 'NONE', ( #83 ) ) ;
#117 = PERSON_AND_ORGANIZATION ( #31, #73 ) ;
#118 = CC_DESIGN_PERSON_AND_ORGANIZATION_ASSIGNMENT ( #133, #51, ( #227 ) ) ;
#119 = ORIENTED_EDGE ( 'NONE', *, *, #66, .T. ) ;
#120 = ORIENTED_EDGE ( 'NONE', *, *, #72, .F. ) ;
#121 = DIRECTION ( 'NONE',  ( 0.0000000000000000000, 1.000000000000000000, 0.0000000000000000000 ) ) ;
#122 = DATE_AND_TIME ( #4, #157 ) ;
#123 = DIRECTION ( 'NONE',  ( -3.491481338843133355E-15, 1.224646799147352961E-16, -1.000000000000000000 ) ) ;
#124 = CARTESIAN_POINT ( 'NONE',  ( 1.316288464743861212E-13, -4.616918432785520292E-15, 37.69999999999999574 ) ) ;
#125 = FACE_OUTER_BOUND ( 'NONE', #166, .T. ) ;
#126 = APPROVAL ( #50, 'UNSPECIFIED' ) ;
#127 = DIRECTION ( 'NONE',  ( 0.0000000000000000000, -1.000000000000000000, 0.0000000000000000000 ) ) ;
#128 = APPROVAL_ROLE ( '' ) ;
#129 = PERSON_AND_ORGANIZATION_ROLE ( 'creator' ) ;
#130 = APPLICATION_PROTOCOL_DEFINITION ( 'international standard', 'config_control_design', 1994, #232 ) ;
#131 = APPROVAL_PERSON_ORGANIZATION ( #198, #154, #115 ) ;
#132 = ADVANCED_BREP_SHAPE_REPRESENTATION ( '51735', ( #94, #96, #14 ), #87 ) ;
#133 = PERSON_AND_ORGANIZATION ( #31, #73 ) ;
#134 = SHAPE_DEFINITION_REPRESENTATION ( #176, #132 ) ;
#135 = EDGE_LOOP ( 'NONE', ( #119 ) ) ;
#136 = APPROVAL_STATUS ( 'not_yet_approved' ) ;
#137 = DIRECTION ( 'NONE',  ( -3.491481338843133355E-15, 1.224646799147352961E-16, -1.000000000000000000 ) ) ;
#138 = CIRCLE ( 'NONE', #60, 1.500000000000003109 ) ;
#139 = DIRECTION ( 'NONE',  ( 1.000000000000000000, -8.298529501018610471E-33, -3.491481338843132961E-15 ) ) ;
#140 = DIRECTION ( 'NONE',  ( 4.814824860968089633E-31, 1.000000000000000000, 1.355252715606880543E-16 ) ) ;
#141 = FACE_OUTER_BOUND ( 'NONE', #36, .T. ) ;
#142 = AXIS2_PLACEMENT_3D ( 'NONE', #64, #195, #121 ) ;
#143 = CARTESIAN_POINT ( 'NONE',  ( 1.187103655206665183E-14, 0.0000000000000000000, 3.399999999999999911 ) ) ;
#144 = CIRCLE ( 'NONE', #27, 0.1907433901496458639 ) ;
#145 = VERTEX_POINT ( 'NONE', #162 ) ;
#146 = CC_DESIGN_DATE_AND_TIME_ASSIGNMENT ( #208, #206, ( #111 ) ) ;
#147 = AXIS2_PLACEMENT_3D ( 'NONE', #102, #26, #47 ) ;
#148 = PERSON_AND_ORGANIZATION ( #31, #73 ) ;
#149 = CLOSED_SHELL ( 'NONE', ( #171, #46, #58 ) ) ;
#150 = ADVANCED_FACE ( 'NONE', ( #174 ), #28, .F. ) ;
#151 = DIRECTION ( 'NONE',  ( 4.275831445896957731E-31, 1.000000000000000000, 1.224646799147352961E-16 ) ) ;
#152 = DIRECTION ( 'NONE',  ( -4.275831445896957731E-31, -1.000000000000000000, -1.224646799147352961E-16 ) ) ;
#153 = ADVANCED_FACE ( 'NONE', ( #212, #103 ), #77, .T. ) ;
#154 = APPROVAL ( #203, 'UNSPECIFIED' ) ;
#155 = FACE_OUTER_BOUND ( 'NONE', #75, .T. ) ;
#156 = CARTESIAN_POINT ( 'NONE',  ( 6.681278429250708218E-15, 0.7499999999999995559, 1.913594197087841620 ) ) ;
#157 = LOCAL_TIME ( 7, 51, 45.00000000000000000, #20 ) ;
#158 = EDGE_CURVE ( 'NONE', #71, #71, #114, .T. ) ;
#159 = APPROVAL_PERSON_ORGANIZATION ( #215, #126, #128 ) ;
#160 = CC_DESIGN_DATE_AND_TIME_ASSIGNMENT ( #69, #76, ( #199 ) ) ;
#161 = EDGE_CURVE ( 'NONE', #35, #35, #144, .T. ) ;
#162 = CARTESIAN_POINT ( 'NONE',  ( 6.681278429250708218E-15, 0.7499999999999995559, 1.913594197087841620 ) ) ;
#163 = ORIENTED_EDGE ( 'NONE', *, *, #161, .T. ) ;
#164 = SECURITY_CLASSIFICATION_LEVEL ( 'unclassified' ) ;
#165 = EDGE_LOOP ( 'NONE', ( #120 ) ) ;
#166 = EDGE_LOOP ( 'NONE', ( #21 ) ) ;
#167 = AXIS2_PLACEMENT_3D ( 'NONE', #6, #211, #45 ) ;
#168 = CARTESIAN_POINT ( 'NONE',  ( 2.367900757518974887E-14, -8.305477824363906558E-16, 6.781937314617165313 ) ) ;
#169 = APPROVAL_DATE_TIME ( #122, #62 ) ;
#170 = SPHERICAL_SURFACE ( 'NONE', #242, 0.2000000000000000111 ) ;
#171 = ADVANCED_FACE ( 'NONE', ( #194 ), #170, .T. ) ;
#172 = CARTESIAN_POINT ( 'NONE',  ( 6.681278429250708218E-15, -2.343477008330574505E-16, 1.913594197087841620 ) ) ;
#173 = AXIS2_PLACEMENT_3D ( 'NONE', #235, #67, #68 ) ;
#174 = FACE_OUTER_BOUND ( 'NONE', #226, .T. ) ;
#175 = CARTESIAN_POINT ( 'NONE',  ( 1.326762908760390423E-13, 8.998558695971097751E-33, 38.00000000000000000 ) ) ;
#176 = PRODUCT_DEFINITION_SHAPE ( 'NONE', 'NONE',  #199 ) ;
#177 =( LENGTH_UNIT ( ) NAMED_UNIT ( * ) SI_UNIT ( .MILLI., .METRE. ) );
#178 = CALENDAR_DATE ( 2021, 24, 11 ) ;
#179 = CIRCLE ( 'NONE', #113, 1.499999999999996891 ) ;
#180 = ORIENTED_EDGE ( 'NONE', *, *, #158, .T. ) ;
#181 = CARTESIAN_POINT ( 'NONE',  ( 2.367900757518974887E-14, 1.499999999999996225, 6.781937314617165313 ) ) ;
#182 = EDGE_LOOP ( 'NONE', ( #180 ) ) ;
#183 = VERTEX_POINT ( 'NONE', #196 ) ;
#184 = EDGE_LOOP ( 'NONE', ( #189 ) ) ;
#185 = PERSON_AND_ORGANIZATION ( #31, #73 ) ;
#186 = EDGE_CURVE ( 'NONE', #197, #197, #138, .T. ) ;
#187 = ORIENTED_EDGE ( 'NONE', *, *, #89, .F. ) ;
#188 = CC_DESIGN_PERSON_AND_ORGANIZATION_ASSIGNMENT ( #185, #99, ( #70 ) ) ;
#189 = ORIENTED_EDGE ( 'NONE', *, *, #89, .T. ) ;
#190 = CYLINDRICAL_SURFACE ( 'NONE', #167, 1.500000000000000000 ) ;
#191 = CC_DESIGN_SECURITY_CLASSIFICATION ( #111, ( #70 ) ) ;
#192 = CARTESIAN_POINT ( 'NONE',  ( 4.883145302784163412E-16, -1.712776808598814294E-17, 0.1398588400991466751 ) ) ;
#193 = FACE_OUTER_BOUND ( 'NONE', #135, .T. ) ;
#194 = FACE_OUTER_BOUND ( 'NONE', #224, .T. ) ;
#195 = DIRECTION ( 'NONE',  ( -3.491481338843133355E-15, 1.224646799147352961E-16, -1.000000000000000000 ) ) ;
#196 = CARTESIAN_POINT ( 'NONE',  ( 1.187103655206665499E-14, 0.7499999999999988898, 3.400000000000000799 ) ) ;
#197 = VERTEX_POINT ( 'NONE', #18 ) ;
#198 = PERSON_AND_ORGANIZATION ( #31, #73 ) ;
#199 = PRODUCT_DEFINITION ( 'UNKNOWN', '', #70, #217 ) ;
#200 = ADVANCED_FACE ( 'NONE', ( #125, #88 ), #7, .T. ) ;
#201 = ORIENTED_EDGE ( 'NONE', *, *, #100, .F. ) ;
#202 = LOCAL_TIME ( 7, 51, 45.00000000000000000, #109 ) ;
#203 = APPROVAL_STATUS ( 'not_yet_approved' ) ;
#204 = CARTESIAN_POINT ( 'NONE',  ( 4.883145302784164398E-16, 0.1907433901496458362, 0.1398588400991467029 ) ) ;
#205 = ORIENTED_EDGE ( 'NONE', *, *, #161, .F. ) ;
#206 = DATE_TIME_ROLE ( 'classification_date' ) ;
#207 = DIRECTION ( 'NONE',  ( 0.0000000000000000000, 1.000000000000000000, 0.0000000000000000000 ) ) ;
#208 = DATE_AND_TIME ( #59, #54 ) ;
#209 = CARTESIAN_POINT ( 'NONE',  ( 1.326762908760390423E-13, -4.653657836759941152E-15, 38.00000000000000000 ) ) ;
#210 = AXIS2_PLACEMENT_3D ( 'NONE', #143, #32, #91 ) ;
#211 = DIRECTION ( 'NONE',  ( -3.491481338843133355E-15, 1.224646799147352961E-16, -1.000000000000000000 ) ) ;
#212 = FACE_OUTER_BOUND ( 'NONE', #116, .T. ) ;
#213 = DIRECTION ( 'NONE',  ( 0.0000000000000000000, 1.000000000000000000, 0.0000000000000000000 ) ) ;
#214 = AXIS2_PLACEMENT_3D ( 'NONE', #22, #48, #127 ) ;
#215 = PERSON_AND_ORGANIZATION ( #31, #73 ) ;
#216 = DIRECTION ( 'NONE',  ( 0.0000000000000000000, 0.0000000000000000000, 1.000000000000000000 ) ) ;
#217 = DESIGN_CONTEXT ( 'detailed design', #232, 'design' ) ;
#218 = CARTESIAN_POINT ( 'NONE',  ( 0.0000000000000000000, 0.0000000000000000000, 0.0000000000000000000 ) ) ;
#219 = LOCAL_TIME ( 7, 51, 45.00000000000000000, #241 ) ;
#220 =( NAMED_UNIT ( * ) PLANE_ANGLE_UNIT ( ) SI_UNIT ( $, .RADIAN. ) );
#221 = AXIS2_PLACEMENT_3D ( 'NONE', #63, #84, #152 ) ;
#222 = CC_DESIGN_APPROVAL ( #154, ( #199 ) ) ;
#223 = MECHANICAL_CONTEXT ( 'NONE', #78, 'mechanical' ) ;
#224 = EDGE_LOOP ( 'NONE', ( #163 ) ) ;
#225 = PERSON_AND_ORGANIZATION ( #31, #73 ) ;
#226 = EDGE_LOOP ( 'NONE', ( #228 ) ) ;
#227 = PRODUCT ( '51735', '51735', '', ( #223 ) ) ;
#228 = ORIENTED_EDGE ( 'NONE', *, *, #158, .F. ) ;
#229 = AXIS2_PLACEMENT_3D ( 'NONE', #209, #65, #107 ) ;
#230 = PLANE ( 'NONE',  #221 ) ;
#231 = CARTESIAN_POINT ( 'NONE',  ( 1.326762908760390423E-13, -4.653657836759941152E-15, 38.00000000000000000 ) ) ;
#232 = APPLICATION_CONTEXT ( 'configuration controlled 3d designs of mechanical parts and assemblies' ) ;
#233 = DATE_AND_TIME ( #178, #202 ) ;
#234 = DIRECTION ( 'NONE',  ( -3.491481338843133355E-15, 1.224646799147352961E-16, -1.000000000000000000 ) ) ;
#235 = CARTESIAN_POINT ( 'NONE',  ( 0.0000000000000000000, 0.0000000000000000000, 0.0000000000000000000 ) ) ;
#236 = ADVANCED_FACE ( 'NONE', ( #141, #12 ), #8, .F. ) ;
#237 = DIRECTION ( 'NONE',  ( -3.491481338843133355E-15, 1.224646799147352961E-16, -1.000000000000000000 ) ) ;
#238 =( NAMED_UNIT ( * ) SI_UNIT ( $, .STERADIAN. ) SOLID_ANGLE_UNIT ( ) );
#239 = CC_DESIGN_APPROVAL ( #126, ( #70 ) ) ;
#240 = DATE_AND_TIME ( #30, #219 ) ;
#241 = COORDINATED_UNIVERSAL_TIME_OFFSET ( 1, 0, .AHEAD. ) ;
#242 = AXIS2_PLACEMENT_3D ( 'NONE', #9, #139, #140 ) ;
#243 = ORIENTED_EDGE ( 'NONE', *, *, #186, .T. ) ;
ENDSEC;
END-ISO-10303-21;
