ISO-10303-21;
HEADER;
FILE_DESCRIPTION (( 'STEP AP203' ),
    '1' );
FILE_NAME ('51734.step',
    '2021-11-24T06:51:45',
    ( '' ),
    ( '' ),
    'SwSTEP 2.0',
    'SolidWorks 2019',
    '' );
FILE_SCHEMA (( 'CONFIG_CONTROL_DESIGN' ));
ENDSEC;

DATA;
#1 = APPROVAL ( #25, 'UNSPECIFIED' ) ;
#2 =( NAMED_UNIT ( * ) SI_UNIT ( $, .STERADIAN. ) SOLID_ANGLE_UNIT ( ) );
#3 = CARTESIAN_POINT ( 'NONE',  ( 1.187103655206665499E-14, 0.7499999999999988898, 3.400000000000000799 ) ) ;
#4 = MANIFOLD_SOLID_BREP ( 'Corps-Déplacer/Copier2[1]', #110 ) ;
#5 = CC_DESIGN_PERSON_AND_ORGANIZATION_ASSIGNMENT ( #168, #231, ( #113 ) ) ;
#6 = DIRECTION ( 'NONE',  ( 3.491481338843133355E-15, -1.224646799147352961E-16, 1.000000000000000000 ) ) ;
#7 = CALENDAR_DATE ( 2021, 24, 11 ) ;
#8 = CC_DESIGN_APPROVAL ( #16, ( #28 ) ) ;
#9 = SHAPE_DEFINITION_REPRESENTATION ( #10, #84 ) ;
#10 = PRODUCT_DEFINITION_SHAPE ( 'NONE', 'NONE',  #185 ) ;
#11 =( GEOMETRIC_REPRESENTATION_CONTEXT ( 3 ) GLOBAL_UNCERTAINTY_ASSIGNED_CONTEXT ( ( #207 ) ) GLOBAL_UNIT_ASSIGNED_CONTEXT ( ( #143, #226, #2 ) ) REPRESENTATION_CONTEXT ( 'NONE', 'WORKASPACE' ) );
#12 = DIRECTION ( 'NONE',  ( 0.0000000000000000000, 1.000000000000000000, 0.0000000000000000000 ) ) ;
#13 = ORIENTED_EDGE ( 'NONE', *, *, #153, .T. ) ;
#14 = CONICAL_SURFACE ( 'NONE', #20, 0.7499999999999997780, 0.3054326190990009349 ) ;
#15 = EDGE_LOOP ( 'NONE', ( #13 ) ) ;
#16 = APPROVAL ( #214, 'UNSPECIFIED' ) ;
#17 = FACE_OUTER_BOUND ( 'NONE', #71, .T. ) ;
#18 = DIRECTION ( 'NONE',  ( -3.491481338843133355E-15, 1.224646799147352961E-16, -1.000000000000000000 ) ) ;
#19 = PLANE ( 'NONE',  #218 ) ;
#20 = AXIS2_PLACEMENT_3D ( 'NONE', #180, #228, #205 ) ;
#21 = CARTESIAN_POINT ( 'NONE',  ( 7.087252084467399533E-15, 5.624099184981959187E-33, 2.029869673258997587 ) ) ;
#22 = CIRCLE ( 'NONE', #106, 1.500000000000003109 ) ;
#23 = ORGANIZATION ( 'UNSPECIFIED', 'UNSPECIFIED', '' ) ;
#24 = CC_DESIGN_PERSON_AND_ORGANIZATION_ASSIGNMENT ( #132, #133, ( #185 ) ) ;
#25 = APPROVAL_STATUS ( 'not_yet_approved' ) ;
#26 = APPROVAL_ROLE ( '' ) ;
#27 = PERSON_AND_ORGANIZATION_ROLE ( 'design_owner' ) ;
#28 = SECURITY_CLASSIFICATION ( '', '', #235 ) ;
#29 = COORDINATED_UNIVERSAL_TIME_OFFSET ( 1, 0, .AHEAD. ) ;
#30 = APPLICATION_PROTOCOL_DEFINITION ( 'international standard', 'config_control_design', 1994, #196 ) ;
#31 = FACE_OUTER_BOUND ( 'NONE', #49, .T. ) ;
#32 = ORIENTED_EDGE ( 'NONE', *, *, #145, .T. ) ;
#33 = PLANE ( 'NONE',  #233 ) ;
#34 = AXIS2_PLACEMENT_3D ( 'NONE', #239, #70, #237 ) ;
#35 = FACE_OUTER_BOUND ( 'NONE', #89, .T. ) ;
#36 = PLANE ( 'NONE',  #170 ) ;
#37 = DIRECTION ( 'NONE',  ( 1.000000000000000000, -1.106470600135814456E-32, -3.491481338843133355E-15 ) ) ;
#38 = AXIS2_PLACEMENT_3D ( 'NONE', #146, #60, #98 ) ;
#39 = VERTEX_POINT ( 'NONE', #164 ) ;
#40 = CC_DESIGN_DATE_AND_TIME_ASSIGNMENT ( #118, #192, ( #185 ) ) ;
#41 = AXIS2_PLACEMENT_3D ( 'NONE', #220, #198, #156 ) ;
#42 = PERSON_AND_ORGANIZATION ( #58, #23 ) ;
#43 = APPROVAL ( #101, 'UNSPECIFIED' ) ;
#44 = PERSON_AND_ORGANIZATION ( #58, #23 ) ;
#45 = PERSON_AND_ORGANIZATION ( #58, #23 ) ;
#46 = CC_DESIGN_APPROVAL ( #1, ( #185 ) ) ;
#47 = DIRECTION ( 'NONE',  ( -3.491481338843133355E-15, 1.224646799147352961E-16, -1.000000000000000000 ) ) ;
#48 = LOCAL_TIME ( 7, 51, 45.00000000000000000, #29 ) ;
#49 = EDGE_LOOP ( 'NONE', ( #66 ) ) ;
#50 = EDGE_LOOP ( 'NONE', ( #32 ) ) ;
#51 = ORIENTED_EDGE ( 'NONE', *, *, #72, .T. ) ;
#52 = CIRCLE ( 'NONE', #238, 0.7499999999999993339 ) ;
#53 = CARTESIAN_POINT ( 'NONE',  ( 7.087252084467399533E-15, -2.485873398042914469E-16, 2.029869673258997587 ) ) ;
#54 = CARTESIAN_POINT ( 'NONE',  ( 1.326762908760390423E-13, 8.998558695971097751E-33, 38.00000000000000000 ) ) ;
#55 = CARTESIAN_POINT ( 'NONE',  ( 1.326762908760390423E-13, -4.653657836759941152E-15, 38.00000000000000000 ) ) ;
#56 = ADVANCED_FACE ( 'NONE', ( #31, #141 ), #173, .T. ) ;
#57 = VERTEX_POINT ( 'NONE', #225 ) ;
#58 = PERSON ( 'UNSPECIFIED', 'UNSPECIFIED', 'UNSPECIFIED', ('UNSPECIFIED'), ('UNSPECIFIED'), ('UNSPECIFIED') ) ;
#59 = CC_DESIGN_DATE_AND_TIME_ASSIGNMENT ( #119, #105, ( #28 ) ) ;
#60 = DIRECTION ( 'NONE',  ( -3.491481338843133355E-15, 1.224646799147352961E-16, -1.000000000000000000 ) ) ;
#61 = PERSON_AND_ORGANIZATION_ROLE ( 'creator' ) ;
#62 = AXIS2_PLACEMENT_3D ( 'NONE', #221, #155, #140 ) ;
#63 = DATE_AND_TIME ( #152, #234 ) ;
#64 = CALENDAR_DATE ( 2021, 24, 11 ) ;
#65 = CIRCLE ( 'NONE', #41, 1.499999999999996891 ) ;
#66 = ORIENTED_EDGE ( 'NONE', *, *, #85, .F. ) ;
#67 = EDGE_CURVE ( 'NONE', #39, #39, #65, .T. ) ;
#68 = EDGE_LOOP ( 'NONE', ( #177 ) ) ;
#69 = AXIS2_PLACEMENT_3D ( 'NONE', #172, #136, #189 ) ;
#70 = DIRECTION ( 'NONE',  ( -3.491481338843133355E-15, 1.224646799147352961E-16, -1.000000000000000000 ) ) ;
#71 = EDGE_LOOP ( 'NONE', ( #123 ) ) ;
#72 = EDGE_CURVE ( 'NONE', #242, #242, #200, .T. ) ;
#73 = CARTESIAN_POINT ( 'NONE',  ( 1.187103655206665183E-14, 0.0000000000000000000, 3.399999999999999911 ) ) ;
#74 = CIRCLE ( 'NONE', #224, 1.200000000000003064 ) ;
#75 = CARTESIAN_POINT ( 'NONE',  ( 1.316288464743861212E-13, 1.499999999999998446, 37.69999999999999574 ) ) ;
#76 = DIRECTION ( 'NONE',  ( 4.275831445896958607E-31, 1.000000000000000000, 1.224646799147352961E-16 ) ) ;
#77 = ADVANCED_FACE ( 'NONE', ( #179 ), #33, .T. ) ;
#78 = DIRECTION ( 'NONE',  ( 6.419766481290784717E-31, 1.000000000000000000, 1.807003620809173646E-16 ) ) ;
#79 = DIRECTION ( 'NONE',  ( -4.275831445896957731E-31, -1.000000000000000000, -1.224646799147352961E-16 ) ) ;
#80 = CARTESIAN_POINT ( 'NONE',  ( 1.187103655206665499E-14, -4.163799117101000559E-16, 3.400000000000000799 ) ) ;
#81 = CC_DESIGN_PERSON_AND_ORGANIZATION_ASSIGNMENT ( #188, #27, ( #213 ) ) ;
#82 = MANIFOLD_SOLID_BREP ( 'Corps-Déplacer/Copier2[2]', #174 ) ;
#83 = COORDINATED_UNIVERSAL_TIME_OFFSET ( 1, 0, .AHEAD. ) ;
#84 = ADVANCED_BREP_SHAPE_REPRESENTATION ( '51734', ( #4, #82, #69 ), #11 ) ;
#85 = EDGE_CURVE ( 'NONE', #144, #144, #22, .T. ) ;
#86 = DESIGN_CONTEXT ( 'detailed design', #148, 'design' ) ;
#87 = APPROVAL_ROLE ( '' ) ;
#88 = CC_DESIGN_SECURITY_CLASSIFICATION ( #28, ( #113 ) ) ;
#89 = EDGE_LOOP ( 'NONE', ( #120 ) ) ;
#90 = ORIENTED_EDGE ( 'NONE', *, *, #232, .F. ) ;
#91 = ADVANCED_FACE ( 'NONE', ( #199, #124 ), #240, .T. ) ;
#92 = EDGE_LOOP ( 'NONE', ( #90 ) ) ;
#93 = DIRECTION ( 'NONE',  ( 3.491481338843133355E-15, -1.224646799147352961E-16, 1.000000000000000000 ) ) ;
#94 = CARTESIAN_POINT ( 'NONE',  ( 0.0000000000000000000, 0.0000000000000000000, 0.0000000000000000000 ) ) ;
#95 = AXIS2_PLACEMENT_3D ( 'NONE', #128, #208, #127 ) ;
#96 = FACE_BOUND ( 'NONE', #122, .T. ) ;
#97 = CARTESIAN_POINT ( 'NONE',  ( 5.237222008264699047E-16, -1.836970198721029441E-17, 0.1499999999999999944 ) ) ;
#98 = DIRECTION ( 'NONE',  ( 3.365656066118056976E-31, 1.000000000000000000, 9.473479628266581779E-17 ) ) ;
#99 = COORDINATED_UNIVERSAL_TIME_OFFSET ( 1, 0, .AHEAD. ) ;
#100 = COORDINATED_UNIVERSAL_TIME_OFFSET ( 1, 0, .AHEAD. ) ;
#101 = APPROVAL_STATUS ( 'not_yet_approved' ) ;
#102 = AXIS2_PLACEMENT_3D ( 'NONE', #73, #222, #201 ) ;
#103 = DATE_AND_TIME ( #64, #191 ) ;
#104 = ADVANCED_FACE ( 'NONE', ( #17, #35 ), #204, .F. ) ;
#105 = DATE_TIME_ROLE ( 'classification_date' ) ;
#106 = AXIS2_PLACEMENT_3D ( 'NONE', #138, #160, #219 ) ;
#107 = EDGE_LOOP ( 'NONE', ( #126 ) ) ;
#108 = ORIENTED_EDGE ( 'NONE', *, *, #232, .T. ) ;
#109 = CARTESIAN_POINT ( 'NONE',  ( 7.087252084467399533E-15, 5.624099184981959187E-33, 2.029869673258997587 ) ) ;
#110 = CLOSED_SHELL ( 'NONE', ( #125, #150, #104, #91, #56, #157 ) ) ;
#111 = ORIENTED_EDGE ( 'NONE', *, *, #72, .F. ) ;
#112 = CARTESIAN_POINT ( 'NONE',  ( 7.087252084467399533E-15, 0.7499999999999995559, 2.029869673258997587 ) ) ;
#113 = PRODUCT_DEFINITION_FORMATION_WITH_SPECIFIED_SOURCE ( 'ANY', '', #213, .NOT_KNOWN. ) ;
#114 = DIRECTION ( 'NONE',  ( 0.0000000000000000000, 1.000000000000000000, 0.0000000000000000000 ) ) ;
#115 = CYLINDRICAL_SURFACE ( 'NONE', #230, 0.7499999999999995559 ) ;
#116 = CC_DESIGN_PERSON_AND_ORGANIZATION_ASSIGNMENT ( #45, #212, ( #28 ) ) ;
#117 = DATE_AND_TIME ( #190, #187 ) ;
#118 = DATE_AND_TIME ( #7, #159 ) ;
#119 = DATE_AND_TIME ( #215, #48 ) ;
#120 = ORIENTED_EDGE ( 'NONE', *, *, #153, .F. ) ;
#121 = CIRCLE ( 'NONE', #95, 0.7499999999999997780 ) ;
#122 = EDGE_LOOP ( 'NONE', ( #158 ) ) ;
#123 = ORIENTED_EDGE ( 'NONE', *, *, #67, .T. ) ;
#124 = FACE_OUTER_BOUND ( 'NONE', #137, .T. ) ;
#125 = ADVANCED_FACE ( 'NONE', ( #162 ), #36, .F. ) ;
#126 = ORIENTED_EDGE ( 'NONE', *, *, #161, .F. ) ;
#127 = DIRECTION ( 'NONE',  ( 0.0000000000000000000, 1.000000000000000000, 0.0000000000000000000 ) ) ;
#128 = CARTESIAN_POINT ( 'NONE',  ( 7.087252084467399533E-15, -2.485873398042914469E-16, 2.029869673258997587 ) ) ;
#129 = APPROVAL_PERSON_ORGANIZATION ( #44, #43, #216 ) ;
#130 = VERTEX_POINT ( 'NONE', #3 ) ;
#131 = DIRECTION ( 'NONE',  ( -3.491481338843133355E-15, 1.224646799147352961E-16, -1.000000000000000000 ) ) ;
#132 = PERSON_AND_ORGANIZATION ( #58, #23 ) ;
#133 = PERSON_AND_ORGANIZATION_ROLE ( 'creator' ) ;
#134 = PERSON_AND_ORGANIZATION ( #58, #23 ) ;
#135 = PERSON_AND_ORGANIZATION ( #58, #23 ) ;
#136 = DIRECTION ( 'NONE',  ( 0.0000000000000000000, 0.0000000000000000000, 1.000000000000000000 ) ) ;
#137 = EDGE_LOOP ( 'NONE', ( #139 ) ) ;
#138 = CARTESIAN_POINT ( 'NONE',  ( 1.316288464743861212E-13, -4.616918432785520292E-15, 37.69999999999999574 ) ) ;
#139 = ORIENTED_EDGE ( 'NONE', *, *, #85, .T. ) ;
#140 = DIRECTION ( 'NONE',  ( 4.275831445896957731E-31, 1.000000000000000000, 1.224646799147353207E-16 ) ) ;
#141 = FACE_BOUND ( 'NONE', #195, .T. ) ;
#142 = VERTEX_POINT ( 'NONE', #186 ) ;
#143 =( LENGTH_UNIT ( ) NAMED_UNIT ( * ) SI_UNIT ( .MILLI., .METRE. ) );
#144 = VERTEX_POINT ( 'NONE', #75 ) ;
#145 = EDGE_CURVE ( 'NONE', #142, #142, #194, .T. ) ;
#146 = CARTESIAN_POINT ( 'NONE',  ( 3.662358977088120834E-16, -1.284582606449110258E-17, 0.1048941300743599647 ) ) ;
#147 = FACE_OUTER_BOUND ( 'NONE', #92, .T. ) ;
#148 = APPLICATION_CONTEXT ( 'configuration controlled 3d designs of mechanical parts and assemblies' ) ;
#149 = APPLICATION_PROTOCOL_DEFINITION ( 'international standard', 'config_control_design', 1994, #148 ) ;
#150 = ADVANCED_FACE ( 'NONE', ( #167, #166 ), #115, .T. ) ;
#151 = APPROVAL_PERSON_ORGANIZATION ( #135, #1, #26 ) ;
#152 = CALENDAR_DATE ( 2021, 24, 11 ) ;
#153 = EDGE_CURVE ( 'NONE', #130, #130, #52, .T. ) ;
#154 = COORDINATED_UNIVERSAL_TIME_OFFSET ( 1, 0, .AHEAD. ) ;
#155 = DIRECTION ( 'NONE',  ( -3.491481338843133355E-15, 1.224646799147352961E-16, -1.000000000000000000 ) ) ;
#156 = DIRECTION ( 'NONE',  ( 0.0000000000000000000, 1.000000000000000000, 0.0000000000000000000 ) ) ;
#157 = ADVANCED_FACE ( 'NONE', ( #147 ), #19, .F. ) ;
#158 = ORIENTED_EDGE ( 'NONE', *, *, #145, .F. ) ;
#159 = LOCAL_TIME ( 7, 51, 45.00000000000000000, #100 ) ;
#160 = DIRECTION ( 'NONE',  ( -3.491481338843133355E-15, 1.224646799147352961E-16, -1.000000000000000000 ) ) ;
#161 = EDGE_CURVE ( 'NONE', #57, #57, #121, .T. ) ;
#162 = FACE_OUTER_BOUND ( 'NONE', #197, .T. ) ;
#163 = ADVANCED_FACE ( 'NONE', ( #202 ), #206, .T. ) ;
#164 = CARTESIAN_POINT ( 'NONE',  ( 2.367900757518974887E-14, 1.499999999999996225, 6.781937314617165313 ) ) ;
#165 = VERTEX_POINT ( 'NONE', #184 ) ;
#166 = FACE_OUTER_BOUND ( 'NONE', #15, .T. ) ;
#167 = FACE_OUTER_BOUND ( 'NONE', #176, .T. ) ;
#168 = PERSON_AND_ORGANIZATION ( #58, #23 ) ;
#169 = APPROVAL_DATE_TIME ( #103, #1 ) ;
#170 = AXIS2_PLACEMENT_3D ( 'NONE', #21, #6, #79 ) ;
#171 = APPROVAL_DATE_TIME ( #117, #16 ) ;
#172 = CARTESIAN_POINT ( 'NONE',  ( 0.0000000000000000000, 0.0000000000000000000, 0.0000000000000000000 ) ) ;
#173 = CONICAL_SURFACE ( 'NONE', #34, 1.200000000000003064, 0.7853981633974453924 ) ;
#174 = CLOSED_SHELL ( 'NONE', ( #163, #183, #77 ) ) ;
#175 = DIRECTION ( 'NONE',  ( -4.275831445896957731E-31, -1.000000000000000000, -1.224646799147352961E-16 ) ) ;
#176 = EDGE_LOOP ( 'NONE', ( #111 ) ) ;
#177 = ORIENTED_EDGE ( 'NONE', *, *, #67, .F. ) ;
#178 = CC_DESIGN_APPROVAL ( #43, ( #113 ) ) ;
#179 = FACE_OUTER_BOUND ( 'NONE', #107, .T. ) ;
#180 = CARTESIAN_POINT ( 'NONE',  ( 7.087252084467399533E-15, -2.485873398042914469E-16, 2.029869673258997587 ) ) ;
#181 = DIRECTION ( 'NONE',  ( -3.491481338843133355E-15, 1.224646799147352961E-16, -1.000000000000000000 ) ) ;
#182 = FACE_OUTER_BOUND ( 'NONE', #241, .T. ) ;
#183 = ADVANCED_FACE ( 'NONE', ( #96, #182 ), #14, .T. ) ;
#184 = CARTESIAN_POINT ( 'NONE',  ( 1.326762908760390423E-13, 1.199999999999998623, 38.00000000000000000 ) ) ;
#185 = PRODUCT_DEFINITION ( 'UNKNOWN', '', #113, #86 ) ;
#186 = CARTESIAN_POINT ( 'NONE',  ( 3.662358977088121327E-16, 0.1430575426122343563, 0.1048941300743599786 ) ) ;
#187 = LOCAL_TIME ( 7, 51, 45.00000000000000000, #154 ) ;
#188 = PERSON_AND_ORGANIZATION ( #58, #23 ) ;
#189 = DIRECTION ( 'NONE',  ( 1.000000000000000000, 0.0000000000000000000, 0.0000000000000000000 ) ) ;
#190 = CALENDAR_DATE ( 2021, 24, 11 ) ;
#191 = LOCAL_TIME ( 7, 51, 45.00000000000000000, #99 ) ;
#192 = DATE_TIME_ROLE ( 'creation_date' ) ;
#193 = APPROVAL_DATE_TIME ( #63, #43 ) ;
#194 = CIRCLE ( 'NONE', #38, 0.1430575426122343563 ) ;
#195 = EDGE_LOOP ( 'NONE', ( #108 ) ) ;
#196 = APPLICATION_CONTEXT ( 'configuration controlled 3d designs of mechanical parts and assemblies' ) ;
#197 = EDGE_LOOP ( 'NONE', ( #51 ) ) ;
#198 = DIRECTION ( 'NONE',  ( -3.491481338843133355E-15, 1.224646799147352961E-16, -1.000000000000000000 ) ) ;
#199 = FACE_OUTER_BOUND ( 'NONE', #68, .T. ) ;
#200 = CIRCLE ( 'NONE', #209, 0.7499999999999997780 ) ;
#201 = DIRECTION ( 'NONE',  ( 4.355100981429075892E-31, 1.000000000000000000, 1.224646799147352961E-16 ) ) ;
#202 = FACE_OUTER_BOUND ( 'NONE', #50, .T. ) ;
#203 = DIRECTION ( 'NONE',  ( 4.275831445896957731E-31, 1.000000000000000000, 1.224646799147352961E-16 ) ) ;
#204 = TOROIDAL_SURFACE ( 'NONE', #102, 8.749999999999998224, 8.000000000000000000 ) ;
#205 = DIRECTION ( 'NONE',  ( 0.0000000000000000000, -1.000000000000000000, 0.0000000000000000000 ) ) ;
#206 = SPHERICAL_SURFACE ( 'NONE', #210, 0.1500000000000000500 ) ;
#207 = UNCERTAINTY_MEASURE_WITH_UNIT (LENGTH_MEASURE( 1.000000000000000082E-05 ), #143, 'distance_accuracy_value', 'NONE');
#208 = DIRECTION ( 'NONE',  ( -3.491481338843133355E-15, 1.224646799147352961E-16, -1.000000000000000000 ) ) ;
#209 = AXIS2_PLACEMENT_3D ( 'NONE', #53, #47, #12 ) ;
#210 = AXIS2_PLACEMENT_3D ( 'NONE', #97, #37, #78 ) ;
#211 = APPROVAL_PERSON_ORGANIZATION ( #42, #16, #87 ) ;
#212 = PERSON_AND_ORGANIZATION_ROLE ( 'classification_officer' ) ;
#213 = PRODUCT ( '51734', '51734', '', ( #229 ) ) ;
#214 = APPROVAL_STATUS ( 'not_yet_approved' ) ;
#215 = CALENDAR_DATE ( 2021, 24, 11 ) ;
#216 = APPROVAL_ROLE ( '' ) ;
#217 = ORIENTED_EDGE ( 'NONE', *, *, #161, .T. ) ;
#218 = AXIS2_PLACEMENT_3D ( 'NONE', #54, #227, #203 ) ;
#219 = DIRECTION ( 'NONE',  ( 0.0000000000000000000, 1.000000000000000000, 0.0000000000000000000 ) ) ;
#220 = CARTESIAN_POINT ( 'NONE',  ( 2.367900757518974887E-14, -8.305477824363906558E-16, 6.781937314617165313 ) ) ;
#221 = CARTESIAN_POINT ( 'NONE',  ( 0.0000000000000000000, 0.0000000000000000000, 0.0000000000000000000 ) ) ;
#222 = DIRECTION ( 'NONE',  ( -3.491481338843133355E-15, 1.224646799147352961E-16, -1.000000000000000000 ) ) ;
#223 = CC_DESIGN_PERSON_AND_ORGANIZATION_ASSIGNMENT ( #134, #61, ( #113 ) ) ;
#224 = AXIS2_PLACEMENT_3D ( 'NONE', #55, #18, #114 ) ;
#225 = CARTESIAN_POINT ( 'NONE',  ( 7.087252084467399533E-15, 0.7499999999999995559, 2.029869673258997587 ) ) ;
#226 =( NAMED_UNIT ( * ) PLANE_ANGLE_UNIT ( ) SI_UNIT ( $, .RADIAN. ) );
#227 = DIRECTION ( 'NONE',  ( -3.491481338843133355E-15, 1.224646799147352961E-16, -1.000000000000000000 ) ) ;
#228 = DIRECTION ( 'NONE',  ( 3.491481338843133355E-15, -1.224646799147352961E-16, 1.000000000000000000 ) ) ;
#229 = MECHANICAL_CONTEXT ( 'NONE', #196, 'mechanical' ) ;
#230 = AXIS2_PLACEMENT_3D ( 'NONE', #94, #181, #76 ) ;
#231 = PERSON_AND_ORGANIZATION_ROLE ( 'design_supplier' ) ;
#232 = EDGE_CURVE ( 'NONE', #165, #165, #74, .T. ) ;
#233 = AXIS2_PLACEMENT_3D ( 'NONE', #109, #93, #175 ) ;
#234 = LOCAL_TIME ( 7, 51, 45.00000000000000000, #83 ) ;
#235 = SECURITY_CLASSIFICATION_LEVEL ( 'unclassified' ) ;
#236 = PRODUCT_RELATED_PRODUCT_CATEGORY ( 'detail', '', ( #213 ) ) ;
#237 = DIRECTION ( 'NONE',  ( 0.0000000000000000000, 1.000000000000000000, 0.0000000000000000000 ) ) ;
#238 = AXIS2_PLACEMENT_3D ( 'NONE', #80, #131, #243 ) ;
#239 = CARTESIAN_POINT ( 'NONE',  ( 1.326762908760390423E-13, -4.653657836759941152E-15, 38.00000000000000000 ) ) ;
#240 = CYLINDRICAL_SURFACE ( 'NONE', #62, 1.500000000000000000 ) ;
#241 = EDGE_LOOP ( 'NONE', ( #217 ) ) ;
#242 = VERTEX_POINT ( 'NONE', #112 ) ;
#243 = DIRECTION ( 'NONE',  ( 0.0000000000000000000, 1.000000000000000000, 0.0000000000000000000 ) ) ;
ENDSEC;
END-ISO-10303-21;
