ISO-10303-21;
HEADER;
FILE_DESCRIPTION (( 'STEP AP203' ),
    '1' );
FILE_NAME ('51712.step',
    '2021-11-17T09:32:01',
    ( '' ),
    ( '' ),
    'SwSTEP 2.0',
    'SolidWorks 2019',
    '' );
FILE_SCHEMA (( 'CONFIG_CONTROL_DESIGN' ));
ENDSEC;

DATA;
#1 = DIRECTION ( 'NONE',  ( 0.0000000000000000000, 1.000000000000000000, 0.0000000000000000000 ) ) ;
#2 = PLANE ( 'NONE',  #124 ) ;
#3 = DIRECTION ( 'NONE',  ( -3.491481338843133355E-15, 1.224646799147353207E-16, -1.000000000000000000 ) ) ;
#4 = DIRECTION ( 'NONE',  ( -4.275831445896958607E-31, -1.000000000000000000, -1.224646799147353207E-16 ) ) ;
#5 = FACE_OUTER_BOUND ( 'NONE', #131, .T. ) ;
#6 = SECURITY_CLASSIFICATION ( '', '', #34 ) ;
#7 = DATE_AND_TIME ( #16, #139 ) ;
#8 = PRODUCT ( '51712', '51712', '', ( #12 ) ) ;
#9 = ORIENTED_EDGE ( 'NONE', *, *, #52, .F. ) ;
#10 = APPROVAL_ROLE ( '' ) ;
#11 = ORIENTED_EDGE ( 'NONE', *, *, #95, .F. ) ;
#12 = MECHANICAL_CONTEXT ( 'NONE', #92, 'mechanical' ) ;
#13 = EDGE_LOOP ( 'NONE', ( #44 ) ) ;
#14 = DATE_AND_TIME ( #174, #39 ) ;
#15 = EDGE_LOOP ( 'NONE', ( #123 ) ) ;
#16 = CALENDAR_DATE ( 2021, 17, 11 ) ;
#17 = DIRECTION ( 'NONE',  ( 3.491481338843133355E-15, -1.230103241304255752E-16, 1.000000000000000000 ) ) ;
#18 = AXIS2_PLACEMENT_3D ( 'NONE', #164, #110, #195 ) ;
#19 = CONICAL_SURFACE ( 'NONE', #197, 5.999999999999994671, 0.7853981633974415066 ) ;
#20 = FACE_BOUND ( 'NONE', #202, .T. ) ;
#21 = FACE_OUTER_BOUND ( 'NONE', #25, .T. ) ;
#22 = EDGE_CURVE ( 'NONE', #162, #162, #64, .T. ) ;
#23 = FACE_OUTER_BOUND ( 'NONE', #46, .T. ) ;
#24 = VERTEX_POINT ( 'NONE', #158 ) ;
#25 = EDGE_LOOP ( 'NONE', ( #45 ) ) ;
#26 = CYLINDRICAL_SURFACE ( 'NONE', #32, 5.999999999999997335 ) ;
#27 = APPROVAL_STATUS ( 'not_yet_approved' ) ;
#28 = CLOSED_SHELL ( 'NONE', ( #223, #221, #207, #190 ) ) ;
#29 =( NAMED_UNIT ( * ) SI_UNIT ( $, .STERADIAN. ) SOLID_ANGLE_UNIT ( ) );
#30 = UNCERTAINTY_MEASURE_WITH_UNIT (LENGTH_MEASURE( 1.000000000000000082E-05 ), #55, 'distance_accuracy_value', 'NONE');
#31 = APPROVAL_ROLE ( '' ) ;
#32 = AXIS2_PLACEMENT_3D ( 'NONE', #93, #56, #70 ) ;
#33 = ORIENTED_EDGE ( 'NONE', *, *, #84, .F. ) ;
#34 = SECURITY_CLASSIFICATION_LEVEL ( 'unclassified' ) ;
#35 = CARTESIAN_POINT ( 'NONE',  ( -2.512506269440592567E-30, 5.839066813795249791E-32, -7.196103961629896282E-16 ) ) ;
#36 = CC_DESIGN_PERSON_AND_ORGANIZATION_ASSIGNMENT ( #96, #117, ( #8 ) ) ;
#37 = CARTESIAN_POINT ( 'NONE',  ( 2.880472104545584198E-13, -1.010333609296566392E-14, 82.49999999999998579 ) ) ;
#38 = PLANE ( 'NONE',  #18 ) ;
#39 = LOCAL_TIME ( 10, 32, 1.000000000000000000, #185 ) ;
#40 = CC_DESIGN_PERSON_AND_ORGANIZATION_ASSIGNMENT ( #151, #100, ( #119 ) ) ;
#41 = FACE_OUTER_BOUND ( 'NONE', #165, .T. ) ;
#42 = COORDINATED_UNIVERSAL_TIME_OFFSET ( 1, 0, .AHEAD. ) ;
#43 = LOCAL_TIME ( 10, 32, 1.000000000000000000, #219 ) ;
#44 = ORIENTED_EDGE ( 'NONE', *, *, #52, .T. ) ;
#45 = ORIENTED_EDGE ( 'NONE', *, *, #104, .F. ) ;
#46 = EDGE_LOOP ( 'NONE', ( #98 ) ) ;
#47 = DIRECTION ( 'NONE',  ( 1.000000000000000000, 0.0000000000000000000, 0.0000000000000000000 ) ) ;
#48 = AXIS2_PLACEMENT_3D ( 'NONE', #35, #118, #66 ) ;
#49 = CC_DESIGN_APPROVAL ( #105, ( #85 ) ) ;
#50 = CC_DESIGN_PERSON_AND_ORGANIZATION_ASSIGNMENT ( #102, #133, ( #6 ) ) ;
#51 = APPROVAL_PERSON_ORGANIZATION ( #116, #80, #10 ) ;
#52 = EDGE_CURVE ( 'NONE', #24, #24, #106, .T. ) ;
#53 = CIRCLE ( 'NONE', #209, 6.000000000000000000 ) ;
#54 = CARTESIAN_POINT ( 'NONE',  ( 5.237222008264700033E-14, 5.999999999999998224, 15.00000000000000000 ) ) ;
#55 =( LENGTH_UNIT ( ) NAMED_UNIT ( * ) SI_UNIT ( .MILLI., .METRE. ) );
#56 = DIRECTION ( 'NONE',  ( -3.491481338843133355E-15, 1.224646799147353207E-16, -1.000000000000000000 ) ) ;
#57 = DIRECTION ( 'NONE',  ( -3.491481338843133355E-15, 1.224646799147353207E-16, -1.000000000000000000 ) ) ;
#58 = CARTESIAN_POINT ( 'NONE',  ( 5.237222008264700033E-14, 4.499279347985570634E-32, 15.00000000000000000 ) ) ;
#59 = APPLICATION_PROTOCOL_DEFINITION ( 'international standard', 'config_control_design', 1994, #203 ) ;
#60 = CALENDAR_DATE ( 2021, 17, 11 ) ;
#61 = APPROVAL_DATE_TIME ( #128, #105 ) ;
#62 = COORDINATED_UNIVERSAL_TIME_OFFSET ( 1, 0, .AHEAD. ) ;
#63 = PERSON_AND_ORGANIZATION_ROLE ( 'design_supplier' ) ;
#64 = CIRCLE ( 'NONE', #134, 6.000000000000000000 ) ;
#65 = AXIS2_PLACEMENT_3D ( 'NONE', #142, #87, #210 ) ;
#66 = DIRECTION ( 'NONE',  ( -4.294882511864260911E-31, -1.000000000000000000, -1.230103241304255752E-16 ) ) ;
#67 = DIRECTION ( 'NONE',  ( 4.275831445896958607E-31, 1.000000000000000000, 1.224646799147353207E-16 ) ) ;
#68 = CC_DESIGN_APPROVAL ( #152, ( #6 ) ) ;
#69 = FACE_OUTER_BOUND ( 'NONE', #182, .T. ) ;
#70 = DIRECTION ( 'NONE',  ( 4.275831445896958607E-31, 1.000000000000000000, 1.224646799147353454E-16 ) ) ;
#71 = CARTESIAN_POINT ( 'NONE',  ( 5.237222008264679325E-16, -1.845154861956378882E-17, 0.1499999999999993838 ) ) ;
#72 = DIRECTION ( 'NONE',  ( -4.333342374871280669E-31, -1.000000000000000000, -1.219727444046192488E-16 ) ) ;
#73 = APPROVAL_ROLE ( '' ) ;
#74 = EDGE_CURVE ( 'NONE', #138, #138, #161, .T. ) ;
#75 = ORIENTED_EDGE ( 'NONE', *, *, #22, .F. ) ;
#76 =( NAMED_UNIT ( * ) PLANE_ANGLE_UNIT ( ) SI_UNIT ( $, .RADIAN. ) );
#77 = AXIS2_PLACEMENT_3D ( 'NONE', #37, #3, #90 ) ;
#78 = EDGE_LOOP ( 'NONE', ( #9 ) ) ;
#79 = CARTESIAN_POINT ( 'NONE',  ( 0.0000000000000000000, 0.0000000000000000000, 0.0000000000000000000 ) ) ;
#80 = APPROVAL ( #27, 'UNSPECIFIED' ) ;
#81 = DATE_TIME_ROLE ( 'classification_date' ) ;
#82 = ADVANCED_BREP_SHAPE_REPRESENTATION ( '51712', ( #159, #155, #213 ), #222 ) ;
#83 = DIRECTION ( 'NONE',  ( 0.0000000000000000000, 1.000000000000000000, 0.0000000000000000000 ) ) ;
#84 = EDGE_CURVE ( 'NONE', #196, #196, #154, .T. ) ;
#85 = PRODUCT_DEFINITION_FORMATION_WITH_SPECIFIED_SOURCE ( 'ANY', '', #8, .NOT_KNOWN. ) ;
#86 = CC_DESIGN_PERSON_AND_ORGANIZATION_ASSIGNMENT ( #187, #63, ( #85 ) ) ;
#87 = DIRECTION ( 'NONE',  ( -3.491481338843133355E-15, 1.224646799147353207E-16, -1.000000000000000000 ) ) ;
#88 = VERTEX_POINT ( 'NONE', #111 ) ;
#89 = CIRCLE ( 'NONE', #77, 5.999999999999994671 ) ;
#90 = DIRECTION ( 'NONE',  ( 0.0000000000000000000, 1.000000000000000000, 0.0000000000000000000 ) ) ;
#91 = VERTEX_POINT ( 'NONE', #212 ) ;
#92 = APPLICATION_CONTEXT ( 'configuration controlled 3d designs of mechanical parts and assemblies' ) ;
#93 = CARTESIAN_POINT ( 'NONE',  ( 0.0000000000000000000, 0.0000000000000000000, 0.0000000000000000000 ) ) ;
#94 = CC_DESIGN_SECURITY_CLASSIFICATION ( #6, ( #85 ) ) ;
#95 = EDGE_CURVE ( 'NONE', #88, #88, #53, .T. ) ;
#96 = PERSON_AND_ORGANIZATION ( #193, #149 ) ;
#97 = DESIGN_CONTEXT ( 'detailed design', #203, 'design' ) ;
#98 = ORIENTED_EDGE ( 'NONE', *, *, #84, .T. ) ;
#99 = APPROVAL_DATE_TIME ( #172, #80 ) ;
#100 = PERSON_AND_ORGANIZATION_ROLE ( 'creator' ) ;
#101 = EDGE_LOOP ( 'NONE', ( #150 ) ) ;
#102 = PERSON_AND_ORGANIZATION ( #193, #149 ) ;
#103 = DIRECTION ( 'NONE',  ( 0.0000000000000000000, 1.000000000000000000, 0.0000000000000000000 ) ) ;
#104 = EDGE_CURVE ( 'NONE', #91, #91, #89, .T. ) ;
#105 = APPROVAL ( #169, 'UNSPECIFIED' ) ;
#106 = CIRCLE ( 'NONE', #48, 5.849999999999999645 ) ;
#107 = CYLINDRICAL_SURFACE ( 'NONE', #65, 6.000000000000000000 ) ;
#108 = DIRECTION ( 'NONE',  ( 3.491481338843133355E-15, -1.230103241304255752E-16, 1.000000000000000000 ) ) ;
#109 = CLOSED_SHELL ( 'NONE', ( #178, #137, #163, #175 ) ) ;
#110 = DIRECTION ( 'NONE',  ( -3.491481338843133355E-15, 1.224646799147353207E-16, -1.000000000000000000 ) ) ;
#111 = CARTESIAN_POINT ( 'NONE',  ( 5.237222008264700033E-14, 5.999999999999998224, 15.00000000000000000 ) ) ;
#112 = APPROVAL_STATUS ( 'not_yet_approved' ) ;
#113 = APPROVAL_DATE_TIME ( #199, #152 ) ;
#114 = LOCAL_TIME ( 10, 32, 1.000000000000000000, #62 ) ;
#115 = DIRECTION ( 'NONE',  ( 0.0000000000000000000, 0.0000000000000000000, 1.000000000000000000 ) ) ;
#116 = PERSON_AND_ORGANIZATION ( #193, #149 ) ;
#117 = PERSON_AND_ORGANIZATION_ROLE ( 'design_owner' ) ;
#118 = DIRECTION ( 'NONE',  ( 3.491481338843133355E-15, -1.230103241304255752E-16, 1.000000000000000000 ) ) ;
#119 = PRODUCT_DEFINITION ( 'UNKNOWN', '', #85, #97 ) ;
#120 = PLANE ( 'NONE',  #206 ) ;
#121 = FACE_OUTER_BOUND ( 'NONE', #15, .T. ) ;
#122 = CARTESIAN_POINT ( 'NONE',  ( -1.282749433769087757E-30, 4.499279347985572824E-32, -3.673940397442059868E-16 ) ) ;
#123 = ORIENTED_EDGE ( 'NONE', *, *, #74, .F. ) ;
#124 = AXIS2_PLACEMENT_3D ( 'NONE', #125, #214, #180 ) ;
#125 = CARTESIAN_POINT ( 'NONE',  ( 5.237222008264700033E-14, 4.499279347985570634E-32, 15.00000000000000000 ) ) ;
#126 = CC_DESIGN_PERSON_AND_ORGANIZATION_ASSIGNMENT ( #130, #132, ( #85 ) ) ;
#127 = PERSON_AND_ORGANIZATION ( #193, #149 ) ;
#128 = DATE_AND_TIME ( #148, #43 ) ;
#129 = CONICAL_SURFACE ( 'NONE', #144, 6.000000000000000000, 0.7853981633974506105 ) ;
#130 = PERSON_AND_ORGANIZATION ( #193, #149 ) ;
#131 = EDGE_LOOP ( 'NONE', ( #75 ) ) ;
#132 = PERSON_AND_ORGANIZATION_ROLE ( 'creator' ) ;
#133 = PERSON_AND_ORGANIZATION_ROLE ( 'classification_officer' ) ;
#134 = AXIS2_PLACEMENT_3D ( 'NONE', #204, #17, #136 ) ;
#135 = APPROVAL_PERSON_ORGANIZATION ( #127, #152, #73 ) ;
#136 = DIRECTION ( 'NONE',  ( -4.333342374871280669E-31, -1.000000000000000000, -1.219727444046192488E-16 ) ) ;
#137 = ADVANCED_FACE ( 'NONE', ( #69, #41 ), #26, .T. ) ;
#138 = VERTEX_POINT ( 'NONE', #208 ) ;
#139 = LOCAL_TIME ( 10, 32, 1.000000000000000000, #42 ) ;
#140 = FACE_OUTER_BOUND ( 'NONE', #101, .T. ) ;
#141 = PLANE ( 'NONE',  #156 ) ;
#142 = CARTESIAN_POINT ( 'NONE',  ( 0.0000000000000000000, 0.0000000000000000000, 0.0000000000000000000 ) ) ;
#143 = CC_DESIGN_DATE_AND_TIME_ASSIGNMENT ( #14, #147, ( #119 ) ) ;
#144 = AXIS2_PLACEMENT_3D ( 'NONE', #71, #108, #72 ) ;
#145 = DIRECTION ( 'NONE',  ( -3.491481338843133355E-15, 1.224646799147353207E-16, -1.000000000000000000 ) ) ;
#146 = COORDINATED_UNIVERSAL_TIME_OFFSET ( 1, 0, .AHEAD. ) ;
#147 = DATE_TIME_ROLE ( 'creation_date' ) ;
#148 = CALENDAR_DATE ( 2021, 17, 11 ) ;
#149 = ORGANIZATION ( 'UNSPECIFIED', 'UNSPECIFIED', '' ) ;
#150 = ORIENTED_EDGE ( 'NONE', *, *, #22, .T. ) ;
#151 = PERSON_AND_ORGANIZATION ( #193, #149 ) ;
#152 = APPROVAL ( #112, 'UNSPECIFIED' ) ;
#153 = CARTESIAN_POINT ( 'NONE',  ( 5.237222008264700033E-14, -1.836970198721029589E-15, 15.00000000000000000 ) ) ;
#154 = CIRCLE ( 'NONE', #192, 6.000000000000000000 ) ;
#155 = MANIFOLD_SOLID_BREP ( 'Corps-Déplacer/Copier1[2]', #28 ) ;
#156 = AXIS2_PLACEMENT_3D ( 'NONE', #122, #57, #67 ) ;
#157 = PRODUCT_DEFINITION_SHAPE ( 'NONE', 'NONE',  #119 ) ;
#158 = CARTESIAN_POINT ( 'NONE',  ( -5.025012538881185135E-30, -5.849999999999999645, -1.439220792325979256E-15 ) ) ;
#159 = MANIFOLD_SOLID_BREP ( 'Corps-Déplacer/Copier1[1]', #109 ) ;
#160 = FACE_OUTER_BOUND ( 'NONE', #78, .T. ) ;
#161 = CIRCLE ( 'NONE', #167, 5.500000000000001776 ) ;
#162 = VERTEX_POINT ( 'NONE', #194 ) ;
#163 = ADVANCED_FACE ( 'NONE', ( #20, #21 ), #19, .T. ) ;
#164 = CARTESIAN_POINT ( 'NONE',  ( 2.897929511239800306E-13, 1.740782235831814945E-30, 82.99999999999998579 ) ) ;
#165 = EDGE_LOOP ( 'NONE', ( #11 ) ) ;
#166 = CARTESIAN_POINT ( 'NONE',  ( 2.880472104545584198E-13, -1.010333609296566392E-14, 82.49999999999998579 ) ) ;
#167 = AXIS2_PLACEMENT_3D ( 'NONE', #189, #205, #103 ) ;
#168 = LOCAL_TIME ( 10, 32, 1.000000000000000000, #146 ) ;
#169 = APPROVAL_STATUS ( 'not_yet_approved' ) ;
#170 = EDGE_LOOP ( 'NONE', ( #173 ) ) ;
#171 = ORIENTED_EDGE ( 'NONE', *, *, #74, .T. ) ;
#172 = DATE_AND_TIME ( #60, #114 ) ;
#173 = ORIENTED_EDGE ( 'NONE', *, *, #95, .T. ) ;
#174 = CALENDAR_DATE ( 2021, 17, 11 ) ;
#175 = ADVANCED_FACE ( 'NONE', ( #121 ), #38, .F. ) ;
#176 = CARTESIAN_POINT ( 'NONE',  ( 5.237222008264700033E-14, -1.836970198721029589E-15, 15.00000000000000000 ) ) ;
#177 = DIRECTION ( 'NONE',  ( 3.491481338843133355E-15, -1.224646799147353207E-16, 1.000000000000000000 ) ) ;
#178 = ADVANCED_FACE ( 'NONE', ( #181 ), #120, .F. ) ;
#179 = FACE_BOUND ( 'NONE', #13, .T. ) ;
#180 = DIRECTION ( 'NONE',  ( -4.275831445896958607E-31, -1.000000000000000000, -1.224646799147353207E-16 ) ) ;
#181 = FACE_OUTER_BOUND ( 'NONE', #170, .T. ) ;
#182 = EDGE_LOOP ( 'NONE', ( #186 ) ) ;
#183 = FACE_OUTER_BOUND ( 'NONE', #201, .T. ) ;
#184 = SHAPE_DEFINITION_REPRESENTATION ( #157, #82 ) ;
#185 = COORDINATED_UNIVERSAL_TIME_OFFSET ( 1, 0, .AHEAD. ) ;
#186 = ORIENTED_EDGE ( 'NONE', *, *, #104, .T. ) ;
#187 = PERSON_AND_ORGANIZATION ( #193, #149 ) ;
#188 = APPROVAL_PERSON_ORGANIZATION ( #217, #105, #31 ) ;
#189 = CARTESIAN_POINT ( 'NONE',  ( 2.897929511239800306E-13, -1.016456843292302992E-14, 82.99999999999998579 ) ) ;
#190 = ADVANCED_FACE ( 'NONE', ( #160 ), #141, .T. ) ;
#191 = CC_DESIGN_DATE_AND_TIME_ASSIGNMENT ( #7, #81, ( #6 ) ) ;
#192 = AXIS2_PLACEMENT_3D ( 'NONE', #176, #220, #83 ) ;
#193 = PERSON ( 'UNSPECIFIED', 'UNSPECIFIED', 'UNSPECIFIED', ('UNSPECIFIED'), ('UNSPECIFIED'), ('UNSPECIFIED') ) ;
#194 = CARTESIAN_POINT ( 'NONE',  ( 5.237222008264653687E-16, -6.000000000000000000, 0.1499999999999986622 ) ) ;
#195 = DIRECTION ( 'NONE',  ( 4.275831445896958607E-31, 1.000000000000000000, 1.224646799147353207E-16 ) ) ;
#196 = VERTEX_POINT ( 'NONE', #54 ) ;
#197 = AXIS2_PLACEMENT_3D ( 'NONE', #166, #211, #1 ) ;
#198 = DIRECTION ( 'NONE',  ( 0.0000000000000000000, 1.000000000000000000, 0.0000000000000000000 ) ) ;
#199 = DATE_AND_TIME ( #216, #168 ) ;
#200 = CC_DESIGN_APPROVAL ( #80, ( #119 ) ) ;
#201 = EDGE_LOOP ( 'NONE', ( #33 ) ) ;
#202 = EDGE_LOOP ( 'NONE', ( #171 ) ) ;
#203 = APPLICATION_CONTEXT ( 'configuration controlled 3d designs of mechanical parts and assemblies' ) ;
#204 = CARTESIAN_POINT ( 'NONE',  ( 5.237222008264679325E-16, -1.845154861956378882E-17, 0.1499999999999993838 ) ) ;
#205 = DIRECTION ( 'NONE',  ( -3.491481338843133355E-15, 1.224646799147353207E-16, -1.000000000000000000 ) ) ;
#206 = AXIS2_PLACEMENT_3D ( 'NONE', #58, #177, #4 ) ;
#207 = ADVANCED_FACE ( 'NONE', ( #179, #5 ), #129, .T. ) ;
#208 = CARTESIAN_POINT ( 'NONE',  ( 2.897929511239800306E-13, 5.499999999999991118, 82.99999999999998579 ) ) ;
#209 = AXIS2_PLACEMENT_3D ( 'NONE', #153, #145, #198 ) ;
#210 = DIRECTION ( 'NONE',  ( 4.275831445896959482E-31, 1.000000000000000000, 1.224646799147353207E-16 ) ) ;
#211 = DIRECTION ( 'NONE',  ( -3.491481338843133355E-15, 1.224646799147353207E-16, -1.000000000000000000 ) ) ;
#212 = CARTESIAN_POINT ( 'NONE',  ( 2.880472104545584198E-13, 5.999999999999984901, 82.49999999999998579 ) ) ;
#213 = AXIS2_PLACEMENT_3D ( 'NONE', #79, #115, #47 ) ;
#214 = DIRECTION ( 'NONE',  ( 3.491481338843133355E-15, -1.224646799147353207E-16, 1.000000000000000000 ) ) ;
#215 = PRODUCT_RELATED_PRODUCT_CATEGORY ( 'detail', '', ( #8 ) ) ;
#216 = CALENDAR_DATE ( 2021, 17, 11 ) ;
#217 = PERSON_AND_ORGANIZATION ( #193, #149 ) ;
#218 = APPLICATION_PROTOCOL_DEFINITION ( 'international standard', 'config_control_design', 1994, #92 ) ;
#219 = COORDINATED_UNIVERSAL_TIME_OFFSET ( 1, 0, .AHEAD. ) ;
#220 = DIRECTION ( 'NONE',  ( -3.491481338843133355E-15, 1.224646799147353207E-16, -1.000000000000000000 ) ) ;
#221 = ADVANCED_FACE ( 'NONE', ( #183 ), #2, .T. ) ;
#222 =( GEOMETRIC_REPRESENTATION_CONTEXT ( 3 ) GLOBAL_UNCERTAINTY_ASSIGNED_CONTEXT ( ( #30 ) ) GLOBAL_UNIT_ASSIGNED_CONTEXT ( ( #55, #76, #29 ) ) REPRESENTATION_CONTEXT ( 'NONE', 'WORKASPACE' ) );
#223 = ADVANCED_FACE ( 'NONE', ( #23, #140 ), #107, .T. ) ;
ENDSEC;
END-ISO-10303-21;
