ISO-10303-21;
HEADER;
FILE_DESCRIPTION (( 'STEP AP203' ),
    '1' );
FILE_NAME ('51711.step',
    '2021-11-17T09:32:01',
    ( '' ),
    ( '' ),
    'SwSTEP 2.0',
    'SolidWorks 2019',
    '' );
FILE_SCHEMA (( 'CONFIG_CONTROL_DESIGN' ));
ENDSEC;

DATA;
#1 = ADVANCED_BREP_SHAPE_REPRESENTATION ( '51711', ( #86, #155, #184 ), #123 ) ;
#2 = CC_DESIGN_PERSON_AND_ORGANIZATION_ASSIGNMENT ( #157, #163, ( #65 ) ) ;
#3 = CALENDAR_DATE ( 2021, 17, 11 ) ;
#4 = SECURITY_CLASSIFICATION ( '', '', #198 ) ;
#5 = EDGE_LOOP ( 'NONE', ( #215 ) ) ;
#6 = ORIENTED_EDGE ( 'NONE', *, *, #211, .T. ) ;
#7 = SHAPE_DEFINITION_REPRESENTATION ( #154, #1 ) ;
#8 = EDGE_LOOP ( 'NONE', ( #96 ) ) ;
#9 = PERSON_AND_ORGANIZATION ( #70, #118 ) ;
#10 = EDGE_LOOP ( 'NONE', ( #162 ) ) ;
#11 = LOCAL_TIME ( 10, 32, 1.000000000000000000, #81 ) ;
#12 = APPROVAL_ROLE ( '' ) ;
#13 = DIRECTION ( 'NONE',  ( 0.0000000000000000000, 1.000000000000000000, 0.0000000000000000000 ) ) ;
#14 = DIRECTION ( 'NONE',  ( -4.237045877651918877E-31, -1.000000000000000000, -1.246832498358330099E-16 ) ) ;
#15 = PLANE ( 'NONE',  #150 ) ;
#16 = VERTEX_POINT ( 'NONE', #67 ) ;
#17 = APPROVAL_PERSON_ORGANIZATION ( #99, #156, #144 ) ;
#18 = LOCAL_TIME ( 10, 32, 1.000000000000000000, #56 ) ;
#19 = APPROVAL_STATUS ( 'not_yet_approved' ) ;
#20 = ADVANCED_FACE ( 'NONE', ( #195 ), #93, .F. ) ;
#21 = CARTESIAN_POINT ( 'NONE',  ( 0.0000000000000000000, 0.0000000000000000000, 0.0000000000000000000 ) ) ;
#22 = EDGE_LOOP ( 'NONE', ( #6 ) ) ;
#23 = AXIS2_PLACEMENT_3D ( 'NONE', #101, #183, #63 ) ;
#24 = ORIENTED_EDGE ( 'NONE', *, *, #54, .F. ) ;
#25 = APPROVAL_DATE_TIME ( #219, #105 ) ;
#26 = APPLICATION_CONTEXT ( 'configuration controlled 3d designs of mechanical parts and assemblies' ) ;
#27 = CARTESIAN_POINT ( 'NONE',  ( 2.496409157272840412E-13, -8.756224613903574137E-15, 71.50000000000000000 ) ) ;
#28 = AXIS2_PLACEMENT_3D ( 'NONE', #58, #140, #100 ) ;
#29 = DIRECTION ( 'NONE',  ( 0.0000000000000000000, 1.000000000000000000, 0.0000000000000000000 ) ) ;
#30 = VERTEX_POINT ( 'NONE', #102 ) ;
#31 = FACE_OUTER_BOUND ( 'NONE', #22, .T. ) ;
#32 = DIRECTION ( 'NONE',  ( 3.491481338843133355E-15, -1.230103241304255752E-16, 1.000000000000000000 ) ) ;
#33 = CIRCLE ( 'NONE', #64, 4.499999999999999112 ) ;
#34 = EDGE_CURVE ( 'NONE', #169, #169, #47, .T. ) ;
#35 = FACE_OUTER_BOUND ( 'NONE', #112, .T. ) ;
#36 = CARTESIAN_POINT ( 'NONE',  ( 2.496409157272840412E-13, -8.756224613903574137E-15, 71.50000000000000000 ) ) ;
#37 = CC_DESIGN_DATE_AND_TIME_ASSIGNMENT ( #194, #205, ( #119 ) ) ;
#38 = PERSON_AND_ORGANIZATION ( #70, #118 ) ;
#39 = DIRECTION ( 'NONE',  ( 4.275831445896958607E-31, 1.000000000000000000, 1.224646799147353207E-16 ) ) ;
#40 = CARTESIAN_POINT ( 'NONE',  ( 2.513866563967056016E-13, -8.817456953860941711E-15, 72.00000000000000000 ) ) ;
#41 = CALENDAR_DATE ( 2021, 17, 11 ) ;
#42 = AXIS2_PLACEMENT_3D ( 'NONE', #78, #200, #39 ) ;
#43 = DATE_AND_TIME ( #203, #109 ) ;
#44 = FACE_OUTER_BOUND ( 'NONE', #8, .T. ) ;
#45 = FACE_BOUND ( 'NONE', #147, .T. ) ;
#46 = PERSON_AND_ORGANIZATION ( #70, #118 ) ;
#47 = CIRCLE ( 'NONE', #76, 5.000000000000000000 ) ;
#48 = CC_DESIGN_PERSON_AND_ORGANIZATION_ASSIGNMENT ( #46, #75, ( #126 ) ) ;
#49 = CLOSED_SHELL ( 'NONE', ( #125, #77, #138, #20 ) ) ;
#50 = LOCAL_TIME ( 10, 32, 1.000000000000000000, #217 ) ;
#51 = APPLICATION_PROTOCOL_DEFINITION ( 'international standard', 'config_control_design', 1994, #26 ) ;
#52 = CIRCLE ( 'NONE', #216, 5.000000000000000000 ) ;
#53 = EDGE_LOOP ( 'NONE', ( #113 ) ) ;
#54 = EDGE_CURVE ( 'NONE', #204, #204, #108, .T. ) ;
#55 = ORIENTED_EDGE ( 'NONE', *, *, #94, .T. ) ;
#56 = COORDINATED_UNIVERSAL_TIME_OFFSET ( 1, 0, .AHEAD. ) ;
#57 = CONICAL_SURFACE ( 'NONE', #167, 5.000000000000000000, 0.7853981633974507215 ) ;
#58 = CARTESIAN_POINT ( 'NONE',  ( 0.0000000000000000000, 0.0000000000000000000, 0.0000000000000000000 ) ) ;
#59 = ADVANCED_FACE ( 'NONE', ( #213 ), #176, .T. ) ;
#60 = PERSON_AND_ORGANIZATION ( #70, #118 ) ;
#61 = PLANE ( 'NONE',  #95 ) ;
#62 = PERSON_AND_ORGANIZATION_ROLE ( 'creator' ) ;
#63 = DIRECTION ( 'NONE',  ( -4.294882511864260035E-31, -1.000000000000000000, -1.230103241304255505E-16 ) ) ;
#64 = AXIS2_PLACEMENT_3D ( 'NONE', #40, #117, #29 ) ;
#65 = PRODUCT_DEFINITION_FORMATION_WITH_SPECIFIED_SOURCE ( 'ANY', '', #126, .NOT_KNOWN. ) ;
#66 =( NAMED_UNIT ( * ) SI_UNIT ( $, .STERADIAN. ) SOLID_ANGLE_UNIT ( ) );
#67 = CARTESIAN_POINT ( 'NONE',  ( 2.513866563967056016E-13, 4.499999999999990230, 72.00000000000000000 ) ) ;
#68 = AXIS2_PLACEMENT_3D ( 'NONE', #218, #32, #14 ) ;
#69 = DIRECTION ( 'NONE',  ( 1.000000000000000000, 0.0000000000000000000, 0.0000000000000000000 ) ) ;
#70 = PERSON ( 'UNSPECIFIED', 'UNSPECIFIED', 'UNSPECIFIED', ('UNSPECIFIED'), ('UNSPECIFIED'), ('UNSPECIFIED') ) ;
#71 = DATE_TIME_ROLE ( 'classification_date' ) ;
#72 = APPROVAL_PERSON_ORGANIZATION ( #60, #178, #91 ) ;
#73 = CARTESIAN_POINT ( 'NONE',  ( 2.513866563967056016E-13, 3.374459510989165933E-32, 72.00000000000000000 ) ) ;
#74 = DIRECTION ( 'NONE',  ( 4.275831445896958607E-31, 1.000000000000000000, 1.224646799147353207E-16 ) ) ;
#75 = PERSON_AND_ORGANIZATION_ROLE ( 'design_owner' ) ;
#76 = AXIS2_PLACEMENT_3D ( 'NONE', #98, #196, #164 ) ;
#77 = ADVANCED_FACE ( 'NONE', ( #116, #35 ), #175, .T. ) ;
#78 = CARTESIAN_POINT ( 'NONE',  ( -1.068957861474239564E-30, 3.749399456654644020E-32, -3.061616997868383141E-16 ) ) ;
#79 = DATE_AND_TIME ( #214, #11 ) ;
#80 = CARTESIAN_POINT ( 'NONE',  ( 4.189777606611760026E-14, 4.999999999999998224, 12.00000000000000000 ) ) ;
#81 = COORDINATED_UNIVERSAL_TIME_OFFSET ( 1, 0, .AHEAD. ) ;
#82 = CARTESIAN_POINT ( 'NONE',  ( 2.496409157272840412E-13, 4.999999999999984013, 71.50000000000000000 ) ) ;
#83 = CARTESIAN_POINT ( 'NONE',  ( 4.189777606611760026E-14, 3.749399456654641830E-32, 12.00000000000000000 ) ) ;
#84 = CC_DESIGN_PERSON_AND_ORGANIZATION_ASSIGNMENT ( #202, #62, ( #119 ) ) ;
#85 = DIRECTION ( 'NONE',  ( -4.275831445896958607E-31, -1.000000000000000000, -1.224646799147353207E-16 ) ) ;
#86 = MANIFOLD_SOLID_BREP ( 'Corps-Déplacer/Copier1[1]', #49 ) ;
#87 = DIRECTION ( 'NONE',  ( -4.237045877651918877E-31, -1.000000000000000000, -1.246832498358330099E-16 ) ) ;
#88 = APPROVAL_PERSON_ORGANIZATION ( #9, #105, #12 ) ;
#89 = CLOSED_SHELL ( 'NONE', ( #201, #210, #161, #59 ) ) ;
#90 = CC_DESIGN_DATE_AND_TIME_ASSIGNMENT ( #79, #71, ( #4 ) ) ;
#91 = APPROVAL_ROLE ( '' ) ;
#92 = DIRECTION ( 'NONE',  ( -3.491481338843133355E-15, 1.224646799147353207E-16, -1.000000000000000000 ) ) ;
#93 = PLANE ( 'NONE',  #145 ) ;
#94 = EDGE_CURVE ( 'NONE', #16, #16, #33, .T. ) ;
#95 = AXIS2_PLACEMENT_3D ( 'NONE', #83, #120, #207 ) ;
#96 = ORIENTED_EDGE ( 'NONE', *, *, #193, .T. ) ;
#97 = PERSON_AND_ORGANIZATION ( #70, #118 ) ;
#98 = CARTESIAN_POINT ( 'NONE',  ( 4.189777606611760026E-14, -1.469576158976823947E-15, 12.00000000000000000 ) ) ;
#99 = PERSON_AND_ORGANIZATION ( #70, #118 ) ;
#100 = DIRECTION ( 'NONE',  ( 4.275831445896958607E-31, 1.000000000000000000, 1.224646799147353207E-16 ) ) ;
#101 = CARTESIAN_POINT ( 'NONE',  ( -2.083018018254166038E-30, 4.325912829528011552E-32, -5.966000720325638805E-16 ) ) ;
#102 = CARTESIAN_POINT ( 'NONE',  ( 5.237222008264660590E-16, -5.000000000000000000, 0.1499999999999988842 ) ) ;
#103 = FACE_OUTER_BOUND ( 'NONE', #127, .T. ) ;
#104 = CARTESIAN_POINT ( 'NONE',  ( 4.189777606611760026E-14, -1.469576158976823947E-15, 12.00000000000000000 ) ) ;
#105 = APPROVAL ( #19, 'UNSPECIFIED' ) ;
#106 = CARTESIAN_POINT ( 'NONE',  ( 0.0000000000000000000, 0.0000000000000000000, 0.0000000000000000000 ) ) ;
#107 = CIRCLE ( 'NONE', #68, 5.000000000000000000 ) ;
#108 = CIRCLE ( 'NONE', #208, 4.999999999999992006 ) ;
#109 = LOCAL_TIME ( 10, 32, 1.000000000000000000, #174 ) ;
#110 = COORDINATED_UNIVERSAL_TIME_OFFSET ( 1, 0, .AHEAD. ) ;
#111 = EDGE_CURVE ( 'NONE', #187, #187, #192, .T. ) ;
#112 = EDGE_LOOP ( 'NONE', ( #130 ) ) ;
#113 = ORIENTED_EDGE ( 'NONE', *, *, #211, .F. ) ;
#114 = EDGE_LOOP ( 'NONE', ( #212 ) ) ;
#115 = PERSON_AND_ORGANIZATION_ROLE ( 'classification_officer' ) ;
#116 = FACE_OUTER_BOUND ( 'NONE', #182, .T. ) ;
#117 = DIRECTION ( 'NONE',  ( -3.491481338843133355E-15, 1.224646799147353207E-16, -1.000000000000000000 ) ) ;
#118 = ORGANIZATION ( 'UNSPECIFIED', 'UNSPECIFIED', '' ) ;
#119 = PRODUCT_DEFINITION ( 'UNKNOWN', '', #65, #129 ) ;
#120 = DIRECTION ( 'NONE',  ( 3.491481338843133355E-15, -1.224646799147353207E-16, 1.000000000000000000 ) ) ;
#121 = CARTESIAN_POINT ( 'NONE',  ( 5.237222008264682284E-16, -1.845154861956380423E-17, 0.1499999999999994948 ) ) ;
#122 = FACE_OUTER_BOUND ( 'NONE', #10, .T. ) ;
#123 =( GEOMETRIC_REPRESENTATION_CONTEXT ( 3 ) GLOBAL_UNCERTAINTY_ASSIGNED_CONTEXT ( ( #199 ) ) GLOBAL_UNIT_ASSIGNED_CONTEXT ( ( #222, #185, #66 ) ) REPRESENTATION_CONTEXT ( 'NONE', 'WORKASPACE' ) );
#124 = MECHANICAL_CONTEXT ( 'NONE', #186, 'mechanical' ) ;
#125 = ADVANCED_FACE ( 'NONE', ( #103 ), #15, .F. ) ;
#126 = PRODUCT ( '51711', '51711', '', ( #124 ) ) ;
#127 = EDGE_LOOP ( 'NONE', ( #177 ) ) ;
#128 = EDGE_LOOP ( 'NONE', ( #24 ) ) ;
#129 = DESIGN_CONTEXT ( 'detailed design', #26, 'design' ) ;
#130 = ORIENTED_EDGE ( 'NONE', *, *, #34, .F. ) ;
#131 = CALENDAR_DATE ( 2021, 17, 11 ) ;
#132 = CC_DESIGN_APPROVAL ( #156, ( #4 ) ) ;
#133 = DIRECTION ( 'NONE',  ( 0.0000000000000000000, 1.000000000000000000, 0.0000000000000000000 ) ) ;
#134 = CC_DESIGN_PERSON_AND_ORGANIZATION_ASSIGNMENT ( #38, #115, ( #4 ) ) ;
#135 = CARTESIAN_POINT ( 'NONE',  ( 4.189777606611760026E-14, 4.999999999999998224, 12.00000000000000000 ) ) ;
#136 = APPROVAL_DATE_TIME ( #221, #156 ) ;
#137 = CARTESIAN_POINT ( 'NONE',  ( -4.166036036508332077E-30, -4.849999999999999645, -1.193200144065127761E-15 ) ) ;
#138 = ADVANCED_FACE ( 'NONE', ( #45, #139 ), #166, .T. ) ;
#139 = FACE_OUTER_BOUND ( 'NONE', #128, .T. ) ;
#140 = DIRECTION ( 'NONE',  ( -3.491481338843133355E-15, 1.224646799147353207E-16, -1.000000000000000000 ) ) ;
#141 = DIRECTION ( 'NONE',  ( -3.491481338843133355E-15, 1.224646799147353207E-16, -1.000000000000000000 ) ) ;
#142 = APPROVAL_STATUS ( 'not_yet_approved' ) ;
#143 = DIRECTION ( 'NONE',  ( -3.491481338843133355E-15, 1.224646799147353207E-16, -1.000000000000000000 ) ) ;
#144 = APPROVAL_ROLE ( '' ) ;
#145 = AXIS2_PLACEMENT_3D ( 'NONE', #73, #141, #74 ) ;
#146 = LOCAL_TIME ( 10, 32, 1.000000000000000000, #110 ) ;
#147 = EDGE_LOOP ( 'NONE', ( #55 ) ) ;
#148 = DIRECTION ( 'NONE',  ( 0.0000000000000000000, 1.000000000000000000, 0.0000000000000000000 ) ) ;
#149 = APPROVAL_DATE_TIME ( #43, #178 ) ;
#150 = AXIS2_PLACEMENT_3D ( 'NONE', #191, #168, #85 ) ;
#151 = VERTEX_POINT ( 'NONE', #80 ) ;
#152 = FACE_OUTER_BOUND ( 'NONE', #53, .T. ) ;
#153 = APPLICATION_PROTOCOL_DEFINITION ( 'international standard', 'config_control_design', 1994, #186 ) ;
#154 = PRODUCT_DEFINITION_SHAPE ( 'NONE', 'NONE',  #119 ) ;
#155 = MANIFOLD_SOLID_BREP ( 'Corps-Déplacer/Copier1[2]', #89 ) ;
#156 = APPROVAL ( #181, 'UNSPECIFIED' ) ;
#157 = PERSON_AND_ORGANIZATION ( #70, #118 ) ;
#158 = DIRECTION ( 'NONE',  ( 4.275831445896959482E-31, 1.000000000000000000, 1.224646799147353454E-16 ) ) ;
#159 = AXIS2_PLACEMENT_3D ( 'NONE', #21, #92, #158 ) ;
#160 = EDGE_LOOP ( 'NONE', ( #180 ) ) ;
#161 = ADVANCED_FACE ( 'NONE', ( #220, #122 ), #57, .T. ) ;
#162 = ORIENTED_EDGE ( 'NONE', *, *, #193, .F. ) ;
#163 = PERSON_AND_ORGANIZATION_ROLE ( 'creator' ) ;
#164 = DIRECTION ( 'NONE',  ( 0.0000000000000000000, 1.000000000000000000, 0.0000000000000000000 ) ) ;
#165 = CYLINDRICAL_SURFACE ( 'NONE', #28, 5.000000000000000000 ) ;
#166 = CONICAL_SURFACE ( 'NONE', #179, 4.999999999999992006, 0.7853981633974415066 ) ;
#167 = AXIS2_PLACEMENT_3D ( 'NONE', #121, #188, #87 ) ;
#168 = DIRECTION ( 'NONE',  ( 3.491481338843133355E-15, -1.224646799147353207E-16, 1.000000000000000000 ) ) ;
#169 = VERTEX_POINT ( 'NONE', #135 ) ;
#170 = DIRECTION ( 'NONE',  ( 0.0000000000000000000, 0.0000000000000000000, 1.000000000000000000 ) ) ;
#171 = PRODUCT_RELATED_PRODUCT_CATEGORY ( 'detail', '', ( #126 ) ) ;
#172 = PERSON_AND_ORGANIZATION_ROLE ( 'design_supplier' ) ;
#173 = CC_DESIGN_APPROVAL ( #178, ( #65 ) ) ;
#174 = COORDINATED_UNIVERSAL_TIME_OFFSET ( 1, 0, .AHEAD. ) ;
#175 = CYLINDRICAL_SURFACE ( 'NONE', #159, 4.999999999999995559 ) ;
#176 = PLANE ( 'NONE',  #42 ) ;
#177 = ORIENTED_EDGE ( 'NONE', *, *, #34, .T. ) ;
#178 = APPROVAL ( #142, 'UNSPECIFIED' ) ;
#179 = AXIS2_PLACEMENT_3D ( 'NONE', #27, #206, #13 ) ;
#180 = ORIENTED_EDGE ( 'NONE', *, *, #111, .T. ) ;
#181 = APPROVAL_STATUS ( 'not_yet_approved' ) ;
#182 = EDGE_LOOP ( 'NONE', ( #197 ) ) ;
#183 = DIRECTION ( 'NONE',  ( 3.491481338843133355E-15, -1.230103241304255752E-16, 1.000000000000000000 ) ) ;
#184 = AXIS2_PLACEMENT_3D ( 'NONE', #106, #170, #69 ) ;
#185 =( NAMED_UNIT ( * ) PLANE_ANGLE_UNIT ( ) SI_UNIT ( $, .RADIAN. ) );
#186 = APPLICATION_CONTEXT ( 'configuration controlled 3d designs of mechanical parts and assemblies' ) ;
#187 = VERTEX_POINT ( 'NONE', #137 ) ;
#188 = DIRECTION ( 'NONE',  ( 3.491481338843133355E-15, -1.230103241304255752E-16, 1.000000000000000000 ) ) ;
#189 = CC_DESIGN_PERSON_AND_ORGANIZATION_ASSIGNMENT ( #97, #172, ( #65 ) ) ;
#190 = CC_DESIGN_APPROVAL ( #105, ( #119 ) ) ;
#191 = CARTESIAN_POINT ( 'NONE',  ( 4.189777606611760026E-14, 3.749399456654641830E-32, 12.00000000000000000 ) ) ;
#192 = CIRCLE ( 'NONE', #23, 4.849999999999999645 ) ;
#193 = EDGE_CURVE ( 'NONE', #30, #30, #107, .T. ) ;
#194 = DATE_AND_TIME ( #131, #146 ) ;
#195 = FACE_OUTER_BOUND ( 'NONE', #114, .T. ) ;
#196 = DIRECTION ( 'NONE',  ( -3.491481338843133355E-15, 1.224646799147353207E-16, -1.000000000000000000 ) ) ;
#197 = ORIENTED_EDGE ( 'NONE', *, *, #54, .T. ) ;
#198 = SECURITY_CLASSIFICATION_LEVEL ( 'unclassified' ) ;
#199 = UNCERTAINTY_MEASURE_WITH_UNIT (LENGTH_MEASURE( 1.000000000000000082E-05 ), #222, 'distance_accuracy_value', 'NONE');
#200 = DIRECTION ( 'NONE',  ( -3.491481338843133355E-15, 1.224646799147353207E-16, -1.000000000000000000 ) ) ;
#201 = ADVANCED_FACE ( 'NONE', ( #31, #44 ), #165, .T. ) ;
#202 = PERSON_AND_ORGANIZATION ( #70, #118 ) ;
#203 = CALENDAR_DATE ( 2021, 17, 11 ) ;
#204 = VERTEX_POINT ( 'NONE', #82 ) ;
#205 = DATE_TIME_ROLE ( 'creation_date' ) ;
#206 = DIRECTION ( 'NONE',  ( -3.491481338843133355E-15, 1.224646799147353207E-16, -1.000000000000000000 ) ) ;
#207 = DIRECTION ( 'NONE',  ( -4.275831445896958607E-31, -1.000000000000000000, -1.224646799147353207E-16 ) ) ;
#208 = AXIS2_PLACEMENT_3D ( 'NONE', #36, #143, #133 ) ;
#209 = CC_DESIGN_SECURITY_CLASSIFICATION ( #4, ( #65 ) ) ;
#210 = ADVANCED_FACE ( 'NONE', ( #152 ), #61, .T. ) ;
#211 = EDGE_CURVE ( 'NONE', #151, #151, #52, .T. ) ;
#212 = ORIENTED_EDGE ( 'NONE', *, *, #94, .F. ) ;
#213 = FACE_OUTER_BOUND ( 'NONE', #5, .T. ) ;
#214 = CALENDAR_DATE ( 2021, 17, 11 ) ;
#215 = ORIENTED_EDGE ( 'NONE', *, *, #111, .F. ) ;
#216 = AXIS2_PLACEMENT_3D ( 'NONE', #104, #223, #148 ) ;
#217 = COORDINATED_UNIVERSAL_TIME_OFFSET ( 1, 0, .AHEAD. ) ;
#218 = CARTESIAN_POINT ( 'NONE',  ( 5.237222008264682284E-16, -1.845154861956380423E-17, 0.1499999999999994948 ) ) ;
#219 = DATE_AND_TIME ( #3, #18 ) ;
#220 = FACE_BOUND ( 'NONE', #160, .T. ) ;
#221 = DATE_AND_TIME ( #41, #50 ) ;
#222 =( LENGTH_UNIT ( ) NAMED_UNIT ( * ) SI_UNIT ( .MILLI., .METRE. ) );
#223 = DIRECTION ( 'NONE',  ( -3.491481338843133355E-15, 1.224646799147353207E-16, -1.000000000000000000 ) ) ;
ENDSEC;
END-ISO-10303-21;
