ISO-10303-21;
HEADER;
FILE_DESCRIPTION (( 'STEP AP203' ),
    '1' );
FILE_NAME ('51710.step',
    '2021-11-17T09:31:57',
    ( '' ),
    ( '' ),
    'SwSTEP 2.0',
    'SolidWorks 2019',
    '' );
FILE_SCHEMA (( 'CONFIG_CONTROL_DESIGN' ));
ENDSEC;

DATA;
#1 = DIRECTION ( 'NONE',  ( 0.0000000000000000000, 1.000000000000000000, 0.0000000000000000000 ) ) ;
#2 = CARTESIAN_POINT ( 'NONE',  ( 2.496409157272840412E-13, 4.999999999999984013, 71.50000000000000000 ) ) ;
#3 = DIRECTION ( 'NONE',  ( -3.491481338843133355E-15, 1.224646799147353207E-16, -1.000000000000000000 ) ) ;
#4 = PERSON ( 'UNSPECIFIED', 'UNSPECIFIED', 'UNSPECIFIED', ('UNSPECIFIED'), ('UNSPECIFIED'), ('UNSPECIFIED') ) ;
#5 = LOCAL_TIME ( 10, 31, 57.00000000000000000, #131 ) ;
#6 = CARTESIAN_POINT ( 'NONE',  ( -1.068957861474239564E-30, 3.749399456654644020E-32, -3.061616997868383141E-16 ) ) ;
#7 = DIRECTION ( 'NONE',  ( -4.294882511864260035E-31, -1.000000000000000000, -1.230103241304255752E-16 ) ) ;
#8 = CONICAL_SURFACE ( 'NONE', #33, 4.000000000000000000, 0.7853981633974514986 ) ;
#9 = PERSON_AND_ORGANIZATION_ROLE ( 'creator' ) ;
#10 = DATE_AND_TIME ( #214, #208 ) ;
#11 = COORDINATED_UNIVERSAL_TIME_OFFSET ( 1, 0, .AHEAD. ) ;
#12 = FACE_BOUND ( 'NONE', #240, .T. ) ;
#13 = DIRECTION ( 'NONE',  ( 3.491481338843133355E-15, -1.230103241304255752E-16, 1.000000000000000000 ) ) ;
#14 = EDGE_LOOP ( 'NONE', ( #114 ) ) ;
#15 = CC_DESIGN_APPROVAL ( #101, ( #230 ) ) ;
#16 = EDGE_LOOP ( 'NONE', ( #241 ) ) ;
#17 = DIRECTION ( 'NONE',  ( -3.491481338843133355E-15, 1.224646799147353207E-16, -1.000000000000000000 ) ) ;
#18 = DIRECTION ( 'NONE',  ( -4.275831445896958607E-31, -1.000000000000000000, -1.224646799147353207E-16 ) ) ;
#19 = CARTESIAN_POINT ( 'NONE',  ( 3.491481338843132724E-14, -1.213121118695619355E-15, 9.999999999999998224 ) ) ;
#20 = PLANE ( 'NONE',  #74 ) ;
#21 = CC_DESIGN_APPROVAL ( #180, ( #161 ) ) ;
#22 = VERTEX_POINT ( 'NONE', #57 ) ;
#23 = CALENDAR_DATE ( 2021, 17, 11 ) ;
#24 = CIRCLE ( 'NONE', #123, 3.999999999999992450 ) ;
#25 = COORDINATED_UNIVERSAL_TIME_OFFSET ( 1, 0, .AHEAD. ) ;
#26 = CC_DESIGN_PERSON_AND_ORGANIZATION_ASSIGNMENT ( #152, #9, ( #71 ) ) ;
#27 = COORDINATED_UNIVERSAL_TIME_OFFSET ( 1, 0, .AHEAD. ) ;
#28 = DIRECTION ( 'NONE',  ( 0.0000000000000000000, 0.0000000000000000000, 1.000000000000000000 ) ) ;
#29 = CIRCLE ( 'NONE', #183, 4.999999999999995559 ) ;
#30 = CC_DESIGN_SECURITY_CLASSIFICATION ( #230, ( #161 ) ) ;
#31 = ADVANCED_FACE ( 'NONE', ( #12, #35 ), #8, .T. ) ;
#32 = ORIENTED_EDGE ( 'NONE', *, *, #222, .F. ) ;
#33 = AXIS2_PLACEMENT_3D ( 'NONE', #155, #13, #96 ) ;
#34 = DIRECTION ( 'NONE',  ( 0.0000000000000000000, 1.000000000000000000, 0.0000000000000000000 ) ) ;
#35 = FACE_OUTER_BOUND ( 'NONE', #187, .T. ) ;
#36 = DIRECTION ( 'NONE',  ( 0.0000000000000000000, -1.000000000000000000, 0.0000000000000000000 ) ) ;
#37 = DIRECTION ( 'NONE',  ( 3.491481338843133355E-15, -1.213121118695619454E-16, 1.000000000000000000 ) ) ;
#38 = CC_DESIGN_APPROVAL ( #58, ( #71 ) ) ;
#39 = DIRECTION ( 'NONE',  ( 0.0000000000000000000, 1.000000000000000000, 0.0000000000000000000 ) ) ;
#40 = DIRECTION ( 'NONE',  ( 3.491481338843133355E-15, -1.213121118695619454E-16, 1.000000000000000000 ) ) ;
#41 = COORDINATED_UNIVERSAL_TIME_OFFSET ( 1, 0, .AHEAD. ) ;
#42 = APPROVAL_ROLE ( '' ) ;
#43 = DATE_TIME_ROLE ( 'creation_date' ) ;
#44 = APPLICATION_PROTOCOL_DEFINITION ( 'international standard', 'config_control_design', 1994, #158 ) ;
#45 = ADVANCED_FACE ( 'NONE', ( #50, #206 ), #51, .T. ) ;
#46 = AXIS2_PLACEMENT_3D ( 'NONE', #142, #40, #59 ) ;
#47 = DATE_AND_TIME ( #110, #84 ) ;
#48 = DIRECTION ( 'NONE',  ( -4.235589747682260442E-31, -1.000000000000000000, -1.213121118695619454E-16 ) ) ;
#49 = EDGE_LOOP ( 'NONE', ( #153 ) ) ;
#50 = FACE_OUTER_BOUND ( 'NONE', #224, .T. ) ;
#51 = CYLINDRICAL_SURFACE ( 'NONE', #128, 3.999999999999993339 ) ;
#52 = VERTEX_POINT ( 'NONE', #211 ) ;
#53 = ADVANCED_FACE ( 'NONE', ( #116, #92 ), #165, .T. ) ;
#54 = PLANE ( 'NONE',  #220 ) ;
#55 = CIRCLE ( 'NONE', #61, 4.499999999999999112 ) ;
#56 = APPROVAL_PERSON_ORGANIZATION ( #200, #180, #126 ) ;
#57 = CARTESIAN_POINT ( 'NONE',  ( 3.491481338843132724E-14, -3.999999999999993339, 9.999999999999998224 ) ) ;
#58 = APPROVAL ( #149, 'UNSPECIFIED' ) ;
#59 = DIRECTION ( 'NONE',  ( -4.288700336488780863E-31, -1.000000000000000000, -1.213121118695619454E-16 ) ) ;
#60 = APPLICATION_PROTOCOL_DEFINITION ( 'international standard', 'config_control_design', 1994, #173 ) ;
#61 = AXIS2_PLACEMENT_3D ( 'NONE', #75, #104, #39 ) ;
#62 = ORGANIZATION ( 'UNSPECIFIED', 'UNSPECIFIED', '' ) ;
#63 = PERSON_AND_ORGANIZATION_ROLE ( 'design_owner' ) ;
#64 = DATE_AND_TIME ( #169, #130 ) ;
#65 = UNCERTAINTY_MEASURE_WITH_UNIT (LENGTH_MEASURE( 1.000000000000000082E-05 ), #213, 'distance_accuracy_value', 'NONE');
#66 = CARTESIAN_POINT ( 'NONE',  ( -6.413747168845438786E-31, 0.0000000000000000000, -1.836970198721029934E-16 ) ) ;
#67 = PRODUCT ( '51710', '51710', '', ( #185 ) ) ;
#68 = AXIS2_PLACEMENT_3D ( 'NONE', #19, #37, #36 ) ;
#69 = SHAPE_DEFINITION_REPRESENTATION ( #111, #184 ) ;
#70 = CARTESIAN_POINT ( 'NONE',  ( 2.496409157272840412E-13, -8.756224613903574137E-15, 71.50000000000000000 ) ) ;
#71 = PRODUCT_DEFINITION ( 'UNKNOWN', '', #161, #203 ) ;
#72 = EDGE_LOOP ( 'NONE', ( #238 ) ) ;
#73 = EDGE_LOOP ( 'NONE', ( #32 ) ) ;
#74 = AXIS2_PLACEMENT_3D ( 'NONE', #6, #3, #139 ) ;
#75 = CARTESIAN_POINT ( 'NONE',  ( 2.513866563967056016E-13, -8.817456953860941711E-15, 72.00000000000000000 ) ) ;
#76 = DIRECTION ( 'NONE',  ( -3.491481338843133355E-15, 1.224646799147353207E-16, -1.000000000000000000 ) ) ;
#77 = MANIFOLD_SOLID_BREP ( 'Corps-Déplacer/Copier1[1]', #83 ) ;
#78 = CARTESIAN_POINT ( 'NONE',  ( 2.513866563967056016E-13, 4.499999999999990230, 72.00000000000000000 ) ) ;
#79 = CC_DESIGN_PERSON_AND_ORGANIZATION_ASSIGNMENT ( #108, #201, ( #161 ) ) ;
#80 = CARTESIAN_POINT ( 'NONE',  ( 0.0000000000000000000, 0.0000000000000000000, 0.0000000000000000000 ) ) ;
#81 = DIRECTION ( 'NONE',  ( -4.275831445896958607E-31, -1.000000000000000000, -1.224646799147353207E-16 ) ) ;
#82 = CARTESIAN_POINT ( 'NONE',  ( 0.0000000000000000000, 0.0000000000000000000, 0.0000000000000000000 ) ) ;
#83 = CLOSED_SHELL ( 'NONE', ( #215, #53, #167, #117, #109 ) ) ;
#84 = LOCAL_TIME ( 10, 31, 57.00000000000000000, #25 ) ;
#85 = DATE_AND_TIME ( #23, #5 ) ;
#86 = EDGE_CURVE ( 'NONE', #22, #22, #24, .T. ) ;
#87 = MANIFOLD_SOLID_BREP ( 'Corps-Déplacer/Copier1[2]', #112 ) ;
#88 = DATE_AND_TIME ( #235, #218 ) ;
#89 = APPROVAL_ROLE ( '' ) ;
#90 = APPROVAL_STATUS ( 'not_yet_approved' ) ;
#91 = ORIENTED_EDGE ( 'NONE', *, *, #141, .F. ) ;
#92 = FACE_OUTER_BOUND ( 'NONE', #225, .T. ) ;
#93 = EDGE_CURVE ( 'NONE', #143, #143, #29, .T. ) ;
#94 =( GEOMETRIC_REPRESENTATION_CONTEXT ( 3 ) GLOBAL_UNCERTAINTY_ASSIGNED_CONTEXT ( ( #65 ) ) GLOBAL_UNIT_ASSIGNED_CONTEXT ( ( #213, #145, #124 ) ) REPRESENTATION_CONTEXT ( 'NONE', 'WORKASPACE' ) );
#95 = DIRECTION ( 'NONE',  ( 0.0000000000000000000, 1.000000000000000000, 0.0000000000000000000 ) ) ;
#96 = DIRECTION ( 'NONE',  ( -4.333342374871280669E-31, -1.000000000000000000, -1.219727444046192488E-16 ) ) ;
#97 = EDGE_CURVE ( 'NONE', #163, #163, #129, .T. ) ;
#98 = FACE_OUTER_BOUND ( 'NONE', #242, .T. ) ;
#99 = DIRECTION ( 'NONE',  ( 3.491481338843133355E-15, -1.224646799147353207E-16, 1.000000000000000000 ) ) ;
#100 = CYLINDRICAL_SURFACE ( 'NONE', #207, 4.999999999999995559 ) ;
#101 = APPROVAL ( #107, 'UNSPECIFIED' ) ;
#102 = FACE_OUTER_BOUND ( 'NONE', #221, .T. ) ;
#103 = AXIS2_PLACEMENT_3D ( 'NONE', #121, #210, #81 ) ;
#104 = DIRECTION ( 'NONE',  ( -3.491481338843133355E-15, 1.224646799147353207E-16, -1.000000000000000000 ) ) ;
#105 = ADVANCED_FACE ( 'NONE', ( #176 ), #195, .T. ) ;
#106 = APPROVAL_DATE_TIME ( #85, #180 ) ;
#107 = APPROVAL_STATUS ( 'not_yet_approved' ) ;
#108 = PERSON_AND_ORGANIZATION ( #4, #62 ) ;
#109 = ADVANCED_FACE ( 'NONE', ( #164 ), #231, .F. ) ;
#110 = CALENDAR_DATE ( 2021, 17, 11 ) ;
#111 = PRODUCT_DEFINITION_SHAPE ( 'NONE', 'NONE',  #71 ) ;
#112 = CLOSED_SHELL ( 'NONE', ( #45, #105, #31, #132 ) ) ;
#113 = ORIENTED_EDGE ( 'NONE', *, *, #86, .F. ) ;
#114 = ORIENTED_EDGE ( 'NONE', *, *, #97, .F. ) ;
#115 = CARTESIAN_POINT ( 'NONE',  ( 4.843726246736475854E-14, -2.204563264940871992E-15, 13.87298334620741613 ) ) ;
#116 = FACE_BOUND ( 'NONE', #16, .T. ) ;
#117 = ADVANCED_FACE ( 'NONE', ( #102, #177 ), #134, .F. ) ;
#118 = FACE_OUTER_BOUND ( 'NONE', #73, .T. ) ;
#119 = VERTEX_POINT ( 'NONE', #78 ) ;
#120 = CC_DESIGN_PERSON_AND_ORGANIZATION_ASSIGNMENT ( #234, #63, ( #67 ) ) ;
#121 = CARTESIAN_POINT ( 'NONE',  ( 3.491481338843133355E-14, 3.749399456654642377E-32, 10.00000000000000000 ) ) ;
#122 = DIRECTION ( 'NONE',  ( 3.491481338843133355E-15, -1.230103241304255752E-16, 1.000000000000000000 ) ) ;
#123 = AXIS2_PLACEMENT_3D ( 'NONE', #205, #190, #174 ) ;
#124 =( NAMED_UNIT ( * ) SI_UNIT ( $, .STERADIAN. ) SOLID_ANGLE_UNIT ( ) );
#125 = CC_DESIGN_PERSON_AND_ORGANIZATION_ASSIGNMENT ( #182, #166, ( #230 ) ) ;
#126 = APPROVAL_ROLE ( '' ) ;
#127 = DATE_TIME_ROLE ( 'classification_date' ) ;
#128 = AXIS2_PLACEMENT_3D ( 'NONE', #66, #192, #48 ) ;
#129 = CIRCLE ( 'NONE', #160, 3.849999999999998757 ) ;
#130 = LOCAL_TIME ( 10, 31, 57.00000000000000000, #27 ) ;
#131 = COORDINATED_UNIVERSAL_TIME_OFFSET ( 1, 0, .AHEAD. ) ;
#132 = ADVANCED_FACE ( 'NONE', ( #144 ), #20, .T. ) ;
#133 = PERSON_AND_ORGANIZATION_ROLE ( 'creator' ) ;
#134 = TOROIDAL_SURFACE ( 'NONE', #46, 11.99999999999999467, 8.000000000000000000 ) ;
#135 = ORIENTED_EDGE ( 'NONE', *, *, #204, .T. ) ;
#136 = EDGE_LOOP ( 'NONE', ( #135 ) ) ;
#137 = ORIENTED_EDGE ( 'NONE', *, *, #204, .F. ) ;
#138 = ORIENTED_EDGE ( 'NONE', *, *, #93, .F. ) ;
#139 = DIRECTION ( 'NONE',  ( 4.275831445896958607E-31, 1.000000000000000000, 1.224646799147353207E-16 ) ) ;
#140 = DIRECTION ( 'NONE',  ( 3.491481338843133355E-15, -1.230103241304255752E-16, 1.000000000000000000 ) ) ;
#141 = EDGE_CURVE ( 'NONE', #52, #52, #175, .T. ) ;
#142 = CARTESIAN_POINT ( 'NONE',  ( 3.491481338843132724E-14, -1.734723475976807094E-15, 9.999999999999998224 ) ) ;
#143 = VERTEX_POINT ( 'NONE', #157 ) ;
#144 = FACE_OUTER_BOUND ( 'NONE', #14, .T. ) ;
#145 =( NAMED_UNIT ( * ) PLANE_ANGLE_UNIT ( ) SI_UNIT ( $, .RADIAN. ) );
#146 = CIRCLE ( 'NONE', #237, 4.000000000000000000 ) ;
#147 = APPROVAL_PERSON_ORGANIZATION ( #186, #101, #89 ) ;
#148 = PRODUCT_RELATED_PRODUCT_CATEGORY ( 'detail', '', ( #67 ) ) ;
#149 = APPROVAL_STATUS ( 'not_yet_approved' ) ;
#150 = PERSON_AND_ORGANIZATION ( #4, #62 ) ;
#151 = AXIS2_PLACEMENT_3D ( 'NONE', #70, #223, #34 ) ;
#152 = PERSON_AND_ORGANIZATION ( #4, #62 ) ;
#153 = ORIENTED_EDGE ( 'NONE', *, *, #93, .T. ) ;
#154 = CIRCLE ( 'NONE', #199, 4.999999999999992006 ) ;
#155 = CARTESIAN_POINT ( 'NONE',  ( 5.237222008264694116E-16, -1.845154861956384428E-17, 0.1499999999999998279 ) ) ;
#156 = EDGE_LOOP ( 'NONE', ( #113 ) ) ;
#157 = CARTESIAN_POINT ( 'NONE',  ( 4.843726246736475854E-14, 4.999999999999992895, 13.87298334620741613 ) ) ;
#158 = APPLICATION_CONTEXT ( 'configuration controlled 3d designs of mechanical parts and assemblies' ) ;
#159 = DIRECTION ( 'NONE',  ( -3.491481338843133355E-15, 1.224646799147353207E-16, -1.000000000000000000 ) ) ;
#160 = AXIS2_PLACEMENT_3D ( 'NONE', #233, #122, #7 ) ;
#161 = PRODUCT_DEFINITION_FORMATION_WITH_SPECIFIED_SOURCE ( 'ANY', '', #67, .NOT_KNOWN. ) ;
#162 = DIRECTION ( 'NONE',  ( -4.333342374871280669E-31, -1.000000000000000000, -1.219727444046192488E-16 ) ) ;
#163 = VERTEX_POINT ( 'NONE', #227 ) ;
#164 = FACE_OUTER_BOUND ( 'NONE', #156, .T. ) ;
#165 = CONICAL_SURFACE ( 'NONE', #151, 4.999999999999992006, 0.7853981633974415066 ) ;
#166 = PERSON_AND_ORGANIZATION_ROLE ( 'classification_officer' ) ;
#167 = ADVANCED_FACE ( 'NONE', ( #118 ), #54, .F. ) ;
#168 = APPROVAL_DATE_TIME ( #10, #58 ) ;
#169 = CALENDAR_DATE ( 2021, 17, 11 ) ;
#170 = ORIENTED_EDGE ( 'NONE', *, *, #239, .T. ) ;
#171 = ORIENTED_EDGE ( 'NONE', *, *, #239, .F. ) ;
#172 = AXIS2_PLACEMENT_3D ( 'NONE', #232, #99, #18 ) ;
#173 = APPLICATION_CONTEXT ( 'configuration controlled 3d designs of mechanical parts and assemblies' ) ;
#174 = DIRECTION ( 'NONE',  ( 0.0000000000000000000, -1.000000000000000000, 0.0000000000000000000 ) ) ;
#175 = CIRCLE ( 'NONE', #68, 3.999999999999992450 ) ;
#176 = FACE_OUTER_BOUND ( 'NONE', #72, .T. ) ;
#177 = FACE_OUTER_BOUND ( 'NONE', #209, .T. ) ;
#178 = CARTESIAN_POINT ( 'NONE',  ( 5.237222008264676367E-16, -4.000000000000000000, 0.1499999999999993283 ) ) ;
#179 = VERTEX_POINT ( 'NONE', #178 ) ;
#180 = APPROVAL ( #90, 'UNSPECIFIED' ) ;
#181 = DIRECTION ( 'NONE',  ( 4.275831445896958607E-31, 1.000000000000000000, 1.224646799147353207E-16 ) ) ;
#182 = PERSON_AND_ORGANIZATION ( #4, #62 ) ;
#183 = AXIS2_PLACEMENT_3D ( 'NONE', #115, #191, #95 ) ;
#184 = ADVANCED_BREP_SHAPE_REPRESENTATION ( '51710', ( #77, #87, #243 ), #94 ) ;
#185 = MECHANICAL_CONTEXT ( 'NONE', #173, 'mechanical' ) ;
#186 = PERSON_AND_ORGANIZATION ( #4, #62 ) ;
#187 = EDGE_LOOP ( 'NONE', ( #137 ) ) ;
#188 = APPROVAL_DATE_TIME ( #47, #101 ) ;
#189 = ORIENTED_EDGE ( 'NONE', *, *, #86, .T. ) ;
#190 = DIRECTION ( 'NONE',  ( 3.491481338843133355E-15, -1.213121118695619454E-16, 1.000000000000000000 ) ) ;
#191 = DIRECTION ( 'NONE',  ( 3.491481338843133355E-15, -1.213121118695619454E-16, 1.000000000000000000 ) ) ;
#192 = DIRECTION ( 'NONE',  ( 3.491481338843133355E-15, -1.213121118695619454E-16, 1.000000000000000000 ) ) ;
#193 = CARTESIAN_POINT ( 'NONE',  ( 5.237222008264694116E-16, -1.845154861956384428E-17, 0.1499999999999998279 ) ) ;
#194 = VERTEX_POINT ( 'NONE', #2 ) ;
#195 = PLANE ( 'NONE',  #103 ) ;
#196 = DIRECTION ( 'NONE',  ( 4.275831445896959482E-31, 1.000000000000000000, 1.224646799147353454E-16 ) ) ;
#197 = CARTESIAN_POINT ( 'NONE',  ( 2.513866563967056016E-13, 3.374459510989165933E-32, 72.00000000000000000 ) ) ;
#198 = PERSON_AND_ORGANIZATION ( #4, #62 ) ;
#199 = AXIS2_PLACEMENT_3D ( 'NONE', #212, #17, #1 ) ;
#200 = PERSON_AND_ORGANIZATION ( #4, #62 ) ;
#201 = PERSON_AND_ORGANIZATION_ROLE ( 'design_supplier' ) ;
#202 = CC_DESIGN_PERSON_AND_ORGANIZATION_ASSIGNMENT ( #198, #133, ( #161 ) ) ;
#203 = DESIGN_CONTEXT ( 'detailed design', #158, 'design' ) ;
#204 = EDGE_CURVE ( 'NONE', #179, #179, #146, .T. ) ;
#205 = CARTESIAN_POINT ( 'NONE',  ( 3.491481338843132724E-14, -1.213121118695619355E-15, 9.999999999999998224 ) ) ;
#206 = FACE_OUTER_BOUND ( 'NONE', #136, .T. ) ;
#207 = AXIS2_PLACEMENT_3D ( 'NONE', #80, #159, #196 ) ;
#208 = LOCAL_TIME ( 10, 31, 57.00000000000000000, #11 ) ;
#209 = EDGE_LOOP ( 'NONE', ( #189 ) ) ;
#210 = DIRECTION ( 'NONE',  ( 3.491481338843133355E-15, -1.224646799147353207E-16, 1.000000000000000000 ) ) ;
#211 = CARTESIAN_POINT ( 'NONE',  ( 3.491481338843132724E-14, -3.999999999999993339, 9.999999999999998224 ) ) ;
#212 = CARTESIAN_POINT ( 'NONE',  ( 2.496409157272840412E-13, -8.756224613903574137E-15, 71.50000000000000000 ) ) ;
#213 =( LENGTH_UNIT ( ) NAMED_UNIT ( * ) SI_UNIT ( .MILLI., .METRE. ) );
#214 = CALENDAR_DATE ( 2021, 17, 11 ) ;
#215 = ADVANCED_FACE ( 'NONE', ( #98, #228 ), #100, .T. ) ;
#216 = DIRECTION ( 'NONE',  ( 1.000000000000000000, 0.0000000000000000000, 0.0000000000000000000 ) ) ;
#217 = SECURITY_CLASSIFICATION_LEVEL ( 'unclassified' ) ;
#218 = LOCAL_TIME ( 10, 31, 57.00000000000000000, #41 ) ;
#219 = CC_DESIGN_DATE_AND_TIME_ASSIGNMENT ( #88, #43, ( #71 ) ) ;
#220 = AXIS2_PLACEMENT_3D ( 'NONE', #197, #76, #181 ) ;
#221 = EDGE_LOOP ( 'NONE', ( #138 ) ) ;
#222 = EDGE_CURVE ( 'NONE', #119, #119, #55, .T. ) ;
#223 = DIRECTION ( 'NONE',  ( -3.491481338843133355E-15, 1.224646799147353207E-16, -1.000000000000000000 ) ) ;
#224 = EDGE_LOOP ( 'NONE', ( #91 ) ) ;
#225 = EDGE_LOOP ( 'NONE', ( #171 ) ) ;
#226 = APPROVAL_PERSON_ORGANIZATION ( #150, #58, #42 ) ;
#227 = CARTESIAN_POINT ( 'NONE',  ( -3.324312812026248155E-30, -3.849999999999998757, -9.521210309913115940E-16 ) ) ;
#228 = FACE_OUTER_BOUND ( 'NONE', #49, .T. ) ;
#229 = CC_DESIGN_DATE_AND_TIME_ASSIGNMENT ( #64, #127, ( #230 ) ) ;
#230 = SECURITY_CLASSIFICATION ( '', '', #217 ) ;
#231 = PLANE ( 'NONE',  #172 ) ;
#232 = CARTESIAN_POINT ( 'NONE',  ( 3.491481338843133355E-14, 3.749399456654642377E-32, 10.00000000000000000 ) ) ;
#233 = CARTESIAN_POINT ( 'NONE',  ( -1.670783044958508646E-30, 2.873544829766680604E-32, -4.785312830891731654E-16 ) ) ;
#234 = PERSON_AND_ORGANIZATION ( #4, #62 ) ;
#235 = CALENDAR_DATE ( 2021, 17, 11 ) ;
#236 = ORIENTED_EDGE ( 'NONE', *, *, #97, .T. ) ;
#237 = AXIS2_PLACEMENT_3D ( 'NONE', #193, #140, #162 ) ;
#238 = ORIENTED_EDGE ( 'NONE', *, *, #141, .T. ) ;
#239 = EDGE_CURVE ( 'NONE', #194, #194, #154, .T. ) ;
#240 = EDGE_LOOP ( 'NONE', ( #236 ) ) ;
#241 = ORIENTED_EDGE ( 'NONE', *, *, #222, .T. ) ;
#242 = EDGE_LOOP ( 'NONE', ( #170 ) ) ;
#243 = AXIS2_PLACEMENT_3D ( 'NONE', #82, #28, #216 ) ;
ENDSEC;
END-ISO-10303-21;
