ISO-10303-21;
HEADER;
FILE_DESCRIPTION (( 'STEP AP203' ),
    '1' );
FILE_NAME ('51709.step',
    '2021-11-17T09:31:56',
    ( '' ),
    ( '' ),
    'SwSTEP 2.0',
    'SolidWorks 2019',
    '' );
FILE_SCHEMA (( 'CONFIG_CONTROL_DESIGN' ));
ENDSEC;

DATA;
#1 = ADVANCED_FACE ( 'NONE', ( #53 ), #240, .T. ) ;
#2 = PLANE ( 'NONE',  #166 ) ;
#3 = FACE_OUTER_BOUND ( 'NONE', #142, .T. ) ;
#4 =( NAMED_UNIT ( * ) SI_UNIT ( $, .STERADIAN. ) SOLID_ANGLE_UNIT ( ) );
#5 = CARTESIAN_POINT ( 'NONE',  ( -1.245515928440635533E-30, 1.375262560206902324E-32, -3.567299399782341359E-16 ) ) ;
#6 = DIRECTION ( 'NONE',  ( -4.235589747682261318E-31, -1.000000000000000000, -1.213121118695619454E-16 ) ) ;
#7 = APPROVAL_PERSON_ORGANIZATION ( #9, #224, #83 ) ;
#8 = PERSON_AND_ORGANIZATION_ROLE ( 'classification_officer' ) ;
#9 = PERSON_AND_ORGANIZATION ( #74, #11 ) ;
#10 = PERSON_AND_ORGANIZATION ( #74, #11 ) ;
#11 = ORGANIZATION ( 'UNSPECIFIED', 'UNSPECIFIED', '' ) ;
#12 = APPROVAL_ROLE ( '' ) ;
#13 = APPLICATION_CONTEXT ( 'configuration controlled 3d designs of mechanical parts and assemblies' ) ;
#14 = DIRECTION ( 'NONE',  ( -3.491481338843133355E-15, 1.224646799147353207E-16, -1.000000000000000000 ) ) ;
#15 = EDGE_LOOP ( 'NONE', ( #54 ) ) ;
#16 = FACE_OUTER_BOUND ( 'NONE', #216, .T. ) ;
#17 = EDGE_CURVE ( 'NONE', #207, #207, #237, .T. ) ;
#18 = CARTESIAN_POINT ( 'NONE',  ( 2.199633243471174140E-13, -7.715274834628325378E-15, 63.00000000000000000 ) ) ;
#19 = CARTESIAN_POINT ( 'NONE',  ( 2.793185071074505422E-14, -2.999999999999993783, 7.999999999999996447 ) ) ;
#20 = CC_DESIGN_PERSON_AND_ORGANIZATION_ASSIGNMENT ( #120, #61, ( #159 ) ) ;
#21 = DIRECTION ( 'NONE',  ( 0.0000000000000000000, 1.000000000000000000, 0.0000000000000000000 ) ) ;
#22 = DIRECTION ( 'NONE',  ( 0.0000000000000000000, 1.000000000000000000, 0.0000000000000000000 ) ) ;
#23 = CALENDAR_DATE ( 2021, 17, 11 ) ;
#24 = ADVANCED_FACE ( 'NONE', ( #70, #182 ), #236, .T. ) ;
#25 = AXIS2_PLACEMENT_3D ( 'NONE', #62, #209, #26 ) ;
#26 = DIRECTION ( 'NONE',  ( 1.000000000000000000, 0.0000000000000000000, 0.0000000000000000000 ) ) ;
#27 = CALENDAR_DATE ( 2021, 17, 11 ) ;
#28 = APPROVAL_STATUS ( 'not_yet_approved' ) ;
#29 = CC_DESIGN_APPROVAL ( #123, ( #135 ) ) ;
#30 = CARTESIAN_POINT ( 'NONE',  ( 3.491481338843123001E-16, -1.230103241304255104E-17, 0.09999999999999970024 ) ) ;
#31 = ADVANCED_FACE ( 'NONE', ( #201, #16 ), #227, .F. ) ;
#32 = ORIENTED_EDGE ( 'NONE', *, *, #195, .T. ) ;
#33 = CIRCLE ( 'NONE', #84, 3.499999999999996891 ) ;
#34 = DIRECTION ( 'NONE',  ( 3.491481338843133355E-15, -1.213121118695619454E-16, 1.000000000000000000 ) ) ;
#35 = ORIENTED_EDGE ( 'NONE', *, *, #119, .F. ) ;
#36 = DIRECTION ( 'NONE',  ( 4.275831445896958607E-31, 1.000000000000000000, 1.224646799147353207E-16 ) ) ;
#37 = FACE_OUTER_BOUND ( 'NONE', #143, .T. ) ;
#38 = FACE_OUTER_BOUND ( 'NONE', #107, .T. ) ;
#39 = FACE_OUTER_BOUND ( 'NONE', #126, .T. ) ;
#40 = VERTEX_POINT ( 'NONE', #19 ) ;
#41 = CONICAL_SURFACE ( 'NONE', #163, 4.000000000000000888, 0.7853981633974518317 ) ;
#42 = DATE_AND_TIME ( #210, #192 ) ;
#43 = DATE_TIME_ROLE ( 'creation_date' ) ;
#44 = CLOSED_SHELL ( 'NONE', ( #24, #212, #86, #31, #50 ) ) ;
#45 = CC_DESIGN_PERSON_AND_ORGANIZATION_ASSIGNMENT ( #172, #169, ( #177 ) ) ;
#46 = MECHANICAL_CONTEXT ( 'NONE', #243, 'mechanical' ) ;
#47 = DATE_AND_TIME ( #23, #175 ) ;
#48 = CIRCLE ( 'NONE', #213, 4.000000000000000888 ) ;
#49 = DIRECTION ( 'NONE',  ( 4.275831445896958607E-31, 1.000000000000000000, 1.224646799147353207E-16 ) ) ;
#50 = ADVANCED_FACE ( 'NONE', ( #144 ), #179, .F. ) ;
#51 = ORIENTED_EDGE ( 'NONE', *, *, #129, .T. ) ;
#52 = AXIS2_PLACEMENT_3D ( 'NONE', #187, #147, #6 ) ;
#53 = FACE_OUTER_BOUND ( 'NONE', #127, .T. ) ;
#54 = ORIENTED_EDGE ( 'NONE', *, *, #17, .F. ) ;
#55 = CARTESIAN_POINT ( 'NONE',  ( -2.491031856881271066E-30, -2.899999999999999911, -7.134598799564682718E-16 ) ) ;
#56 = LOCAL_TIME ( 10, 31, 56.00000000000000000, #233 ) ;
#57 = DIRECTION ( 'NONE',  ( 3.491481338843133355E-15, -1.213121118695619454E-16, 1.000000000000000000 ) ) ;
#58 = CARTESIAN_POINT ( 'NONE',  ( 4.145429978967852969E-14, 3.999999999999997335, 11.87298334620742501 ) ) ;
#59 =( GEOMETRIC_REPRESENTATION_CONTEXT ( 3 ) GLOBAL_UNCERTAINTY_ASSIGNED_CONTEXT ( ( #141 ) ) GLOBAL_UNIT_ASSIGNED_CONTEXT ( ( #130, #115, #4 ) ) REPRESENTATION_CONTEXT ( 'NONE', 'WORKASPACE' ) );
#60 = SECURITY_CLASSIFICATION_LEVEL ( 'unclassified' ) ;
#61 = PERSON_AND_ORGANIZATION_ROLE ( 'design_supplier' ) ;
#62 = CARTESIAN_POINT ( 'NONE',  ( 0.0000000000000000000, 0.0000000000000000000, 0.0000000000000000000 ) ) ;
#63 = ADVANCED_FACE ( 'NONE', ( #222, #64 ), #180, .T. ) ;
#64 = FACE_OUTER_BOUND ( 'NONE', #239, .T. ) ;
#65 = CIRCLE ( 'NONE', #184, 2.999999999999993339 ) ;
#66 = EDGE_LOOP ( 'NONE', ( #238 ) ) ;
#67 = DIRECTION ( 'NONE',  ( 4.275831445896958607E-31, 1.000000000000000000, 1.224646799147353207E-16 ) ) ;
#68 = EDGE_CURVE ( 'NONE', #40, #40, #65, .T. ) ;
#69 = DIRECTION ( 'NONE',  ( -4.291495630636490989E-31, -1.000000000000000000, -1.213121118695619454E-16 ) ) ;
#70 = FACE_OUTER_BOUND ( 'NONE', #66, .T. ) ;
#71 = PLANE ( 'NONE',  #139 ) ;
#72 = VERTEX_POINT ( 'NONE', #114 ) ;
#73 = CC_DESIGN_PERSON_AND_ORGANIZATION_ASSIGNMENT ( #138, #8, ( #135 ) ) ;
#74 = PERSON ( 'UNSPECIFIED', 'UNSPECIFIED', 'UNSPECIFIED', ('UNSPECIFIED'), ('UNSPECIFIED'), ('UNSPECIFIED') ) ;
#75 = AXIS2_PLACEMENT_3D ( 'NONE', #30, #105, #88 ) ;
#76 = DIRECTION ( 'NONE',  ( 3.491481338843133355E-15, -1.230103241304255752E-16, 1.000000000000000000 ) ) ;
#77 = CYLINDRICAL_SURFACE ( 'NONE', #52, 2.999999999999993339 ) ;
#78 = MANIFOLD_SOLID_BREP ( 'Corps-Déplacer/Copier1[2]', #204 ) ;
#79 = PERSON_AND_ORGANIZATION ( #74, #11 ) ;
#80 = CIRCLE ( 'NONE', #131, 2.899999999999999911 ) ;
#81 = MANIFOLD_SOLID_BREP ( 'Corps-Déplacer/Copier1[1]', #44 ) ;
#82 = APPROVAL_DATE_TIME ( #47, #224 ) ;
#83 = APPROVAL_ROLE ( '' ) ;
#84 = AXIS2_PLACEMENT_3D ( 'NONE', #18, #231, #22 ) ;
#85 = APPROVAL_DATE_TIME ( #42, #123 ) ;
#86 = ADVANCED_FACE ( 'NONE', ( #3 ), #71, .F. ) ;
#87 = ORIENTED_EDGE ( 'NONE', *, *, #195, .F. ) ;
#88 = DIRECTION ( 'NONE',  ( -4.333342374871280669E-31, -1.000000000000000000, -1.219727444046192488E-16 ) ) ;
#89 = EDGE_LOOP ( 'NONE', ( #124 ) ) ;
#90 = CARTESIAN_POINT ( 'NONE',  ( 2.793185071074506053E-14, -1.734723475976807094E-15, 7.999999999999998224 ) ) ;
#91 = CC_DESIGN_APPROVAL ( #224, ( #112 ) ) ;
#92 = CARTESIAN_POINT ( 'NONE',  ( 2.182175836776958284E-13, 3.999999999999993339, 62.50000000000000000 ) ) ;
#93 = CC_DESIGN_DATE_AND_TIME_ASSIGNMENT ( #122, #43, ( #112 ) ) ;
#94 = FACE_OUTER_BOUND ( 'NONE', #181, .T. ) ;
#95 = CARTESIAN_POINT ( 'NONE',  ( 2.793185071074506684E-14, 2.999519565323713574E-32, 8.000000000000000000 ) ) ;
#96 = DIRECTION ( 'NONE',  ( 3.491481338843133355E-15, -1.224646799147353207E-16, 1.000000000000000000 ) ) ;
#97 = LOCAL_TIME ( 10, 31, 56.00000000000000000, #193 ) ;
#98 = DIRECTION ( 'NONE',  ( 0.0000000000000000000, 1.000000000000000000, 0.0000000000000000000 ) ) ;
#99 = AXIS2_PLACEMENT_3D ( 'NONE', #199, #104, #219 ) ;
#100 = DATE_AND_TIME ( #27, #97 ) ;
#101 = CALENDAR_DATE ( 2021, 17, 11 ) ;
#102 = CC_DESIGN_APPROVAL ( #208, ( #159 ) ) ;
#103 = CC_DESIGN_PERSON_AND_ORGANIZATION_ASSIGNMENT ( #137, #134, ( #112 ) ) ;
#104 = DIRECTION ( 'NONE',  ( 3.491481338843133355E-15, -1.213121118695619454E-16, 1.000000000000000000 ) ) ;
#105 = DIRECTION ( 'NONE',  ( 3.491481338843133355E-15, -1.230103241304255752E-16, 1.000000000000000000 ) ) ;
#106 = EDGE_CURVE ( 'NONE', #117, #117, #33, .T. ) ;
#107 = EDGE_LOOP ( 'NONE', ( #176 ) ) ;
#108 = LOCAL_TIME ( 10, 31, 56.00000000000000000, #154 ) ;
#109 = ORIENTED_EDGE ( 'NONE', *, *, #106, .T. ) ;
#110 = EDGE_LOOP ( 'NONE', ( #109 ) ) ;
#111 = VERTEX_POINT ( 'NONE', #92 ) ;
#112 = PRODUCT_DEFINITION ( 'UNKNOWN', '', #159, #197 ) ;
#113 = APPROVAL_PERSON_ORGANIZATION ( #10, #123, #12 ) ;
#114 = CARTESIAN_POINT ( 'NONE',  ( 2.793185071074505422E-14, -2.999999999999993783, 7.999999999999996447 ) ) ;
#115 =( NAMED_UNIT ( * ) PLANE_ANGLE_UNIT ( ) SI_UNIT ( $, .RADIAN. ) );
#116 = DIRECTION ( 'NONE',  ( -3.491481338843133355E-15, 1.224646799147353207E-16, -1.000000000000000000 ) ) ;
#117 = VERTEX_POINT ( 'NONE', #223 ) ;
#118 = CALENDAR_DATE ( 2021, 17, 11 ) ;
#119 = EDGE_CURVE ( 'NONE', #72, #72, #145, .T. ) ;
#120 = PERSON_AND_ORGANIZATION ( #74, #11 ) ;
#121 = CC_DESIGN_SECURITY_CLASSIFICATION ( #135, ( #159 ) ) ;
#122 = DATE_AND_TIME ( #118, #108 ) ;
#123 = APPROVAL ( #174, 'UNSPECIFIED' ) ;
#124 = ORIENTED_EDGE ( 'NONE', *, *, #17, .T. ) ;
#125 = DIRECTION ( 'NONE',  ( -3.491481338843133355E-15, 1.224646799147353207E-16, -1.000000000000000000 ) ) ;
#126 = EDGE_LOOP ( 'NONE', ( #35 ) ) ;
#127 = EDGE_LOOP ( 'NONE', ( #87 ) ) ;
#128 = CARTESIAN_POINT ( 'NONE',  ( 2.182175836776958284E-13, -7.654042494670957804E-15, 62.50000000000000000 ) ) ;
#129 = EDGE_CURVE ( 'NONE', #225, #225, #156, .T. ) ;
#130 =( LENGTH_UNIT ( ) NAMED_UNIT ( * ) SI_UNIT ( .MILLI., .METRE. ) );
#131 = AXIS2_PLACEMENT_3D ( 'NONE', #5, #76, #150 ) ;
#132 = CARTESIAN_POINT ( 'NONE',  ( 2.793185071074505422E-14, -9.704968949564951687E-16, 7.999999999999996447 ) ) ;
#133 = CARTESIAN_POINT ( 'NONE',  ( 2.199633243471174140E-13, 2.624579619658236582E-32, 63.00000000000000000 ) ) ;
#134 = PERSON_AND_ORGANIZATION_ROLE ( 'creator' ) ;
#135 = SECURITY_CLASSIFICATION ( '', '', #60 ) ;
#136 = COORDINATED_UNIVERSAL_TIME_OFFSET ( 1, 0, .AHEAD. ) ;
#137 = PERSON_AND_ORGANIZATION ( #74, #11 ) ;
#138 = PERSON_AND_ORGANIZATION ( #74, #11 ) ;
#139 = AXIS2_PLACEMENT_3D ( 'NONE', #133, #116, #36 ) ;
#140 = ORIENTED_EDGE ( 'NONE', *, *, #119, .T. ) ;
#141 = UNCERTAINTY_MEASURE_WITH_UNIT (LENGTH_MEASURE( 1.000000000000000082E-05 ), #130, 'distance_accuracy_value', 'NONE');
#142 = EDGE_LOOP ( 'NONE', ( #178 ) ) ;
#143 = EDGE_LOOP ( 'NONE', ( #51 ) ) ;
#144 = FACE_OUTER_BOUND ( 'NONE', #161, .T. ) ;
#145 = CIRCLE ( 'NONE', #234, 2.999999999999993339 ) ;
#146 = DIRECTION ( 'NONE',  ( -4.275831445896958607E-31, -1.000000000000000000, -1.224646799147353207E-16 ) ) ;
#147 = DIRECTION ( 'NONE',  ( 3.491481338843133355E-15, -1.213121118695619454E-16, 1.000000000000000000 ) ) ;
#148 = DIRECTION ( 'NONE',  ( 0.0000000000000000000, -1.000000000000000000, 0.0000000000000000000 ) ) ;
#149 = ADVANCED_FACE ( 'NONE', ( #39, #37 ), #77, .T. ) ;
#150 = DIRECTION ( 'NONE',  ( -4.294882511864260911E-31, -1.000000000000000000, -1.230103241304255752E-16 ) ) ;
#151 = CARTESIAN_POINT ( 'NONE',  ( 3.491481338843110182E-16, -3.000000000000000000, 0.09999999999999933942 ) ) ;
#152 = AXIS2_PLACEMENT_3D ( 'NONE', #186, #167, #185 ) ;
#153 = EDGE_CURVE ( 'NONE', #111, #111, #48, .T. ) ;
#154 = COORDINATED_UNIVERSAL_TIME_OFFSET ( 1, 0, .AHEAD. ) ;
#155 = DATE_AND_TIME ( #101, #56 ) ;
#156 = CIRCLE ( 'NONE', #152, 3.000000000000000000 ) ;
#157 = SHAPE_DEFINITION_REPRESENTATION ( #235, #171 ) ;
#158 = CARTESIAN_POINT ( 'NONE',  ( -8.551662891793915461E-31, 2.999519565323715216E-32, -2.449293598294706414E-16 ) ) ;
#159 = PRODUCT_DEFINITION_FORMATION_WITH_SPECIFIED_SOURCE ( 'ANY', '', #177, .NOT_KNOWN. ) ;
#160 = ORIENTED_EDGE ( 'NONE', *, *, #68, .F. ) ;
#161 = EDGE_LOOP ( 'NONE', ( #160 ) ) ;
#162 = CARTESIAN_POINT ( 'NONE',  ( 2.793185071074506684E-14, 2.999519565323713574E-32, 8.000000000000000000 ) ) ;
#163 = AXIS2_PLACEMENT_3D ( 'NONE', #203, #230, #98 ) ;
#164 = VERTEX_POINT ( 'NONE', #55 ) ;
#165 = ADVANCED_FACE ( 'NONE', ( #94 ), #2, .T. ) ;
#166 = AXIS2_PLACEMENT_3D ( 'NONE', #95, #96, #183 ) ;
#167 = DIRECTION ( 'NONE',  ( 3.491481338843133355E-15, -1.230103241304255752E-16, 1.000000000000000000 ) ) ;
#168 = FACE_BOUND ( 'NONE', #110, .T. ) ;
#169 = PERSON_AND_ORGANIZATION_ROLE ( 'design_owner' ) ;
#170 = APPLICATION_PROTOCOL_DEFINITION ( 'international standard', 'config_control_design', 1994, #13 ) ;
#171 = ADVANCED_BREP_SHAPE_REPRESENTATION ( '51709', ( #81, #78, #25 ), #59 ) ;
#172 = PERSON_AND_ORGANIZATION ( #74, #11 ) ;
#173 = DATE_TIME_ROLE ( 'classification_date' ) ;
#174 = APPROVAL_STATUS ( 'not_yet_approved' ) ;
#175 = LOCAL_TIME ( 10, 31, 56.00000000000000000, #215 ) ;
#176 = ORIENTED_EDGE ( 'NONE', *, *, #153, .F. ) ;
#177 = PRODUCT ( '51709', '51709', '', ( #46 ) ) ;
#178 = ORIENTED_EDGE ( 'NONE', *, *, #106, .F. ) ;
#179 = PLANE ( 'NONE',  #221 ) ;
#180 = CONICAL_SURFACE ( 'NONE', #75, 3.000000000000000000, 0.7853981633974492782 ) ;
#181 = EDGE_LOOP ( 'NONE', ( #140 ) ) ;
#182 = FACE_OUTER_BOUND ( 'NONE', #89, .T. ) ;
#183 = DIRECTION ( 'NONE',  ( -4.275831445896958607E-31, -1.000000000000000000, -1.224646799147353207E-16 ) ) ;
#184 = AXIS2_PLACEMENT_3D ( 'NONE', #228, #57, #189 ) ;
#185 = DIRECTION ( 'NONE',  ( -4.333342374871280669E-31, -1.000000000000000000, -1.219727444046192488E-16 ) ) ;
#186 = CARTESIAN_POINT ( 'NONE',  ( 3.491481338843123001E-16, -1.230103241304255104E-17, 0.09999999999999970024 ) ) ;
#187 = CARTESIAN_POINT ( 'NONE',  ( -6.413747168845438786E-31, 0.0000000000000000000, -1.836970198721029934E-16 ) ) ;
#188 = AXIS2_PLACEMENT_3D ( 'NONE', #90, #34, #69 ) ;
#189 = DIRECTION ( 'NONE',  ( 0.0000000000000000000, -1.000000000000000000, 0.0000000000000000000 ) ) ;
#190 = PERSON_AND_ORGANIZATION ( #74, #11 ) ;
#191 = APPLICATION_PROTOCOL_DEFINITION ( 'international standard', 'config_control_design', 1994, #243 ) ;
#192 = LOCAL_TIME ( 10, 31, 56.00000000000000000, #136 ) ;
#193 = COORDINATED_UNIVERSAL_TIME_OFFSET ( 1, 0, .AHEAD. ) ;
#194 = APPROVAL_STATUS ( 'not_yet_approved' ) ;
#195 = EDGE_CURVE ( 'NONE', #164, #164, #80, .T. ) ;
#196 = EDGE_LOOP ( 'NONE', ( #32 ) ) ;
#197 = DESIGN_CONTEXT ( 'detailed design', #13, 'design' ) ;
#198 = CARTESIAN_POINT ( 'NONE',  ( 0.0000000000000000000, 0.0000000000000000000, 0.0000000000000000000 ) ) ;
#199 = CARTESIAN_POINT ( 'NONE',  ( 4.145429978967852969E-14, -2.204563264940872781E-15, 11.87298334620742501 ) ) ;
#200 = APPROVAL_PERSON_ORGANIZATION ( #190, #208, #214 ) ;
#201 = FACE_OUTER_BOUND ( 'NONE', #15, .T. ) ;
#202 = DIRECTION ( 'NONE',  ( -3.491481338843133355E-15, 1.224646799147353207E-16, -1.000000000000000000 ) ) ;
#203 = CARTESIAN_POINT ( 'NONE',  ( 2.182175836776958284E-13, -7.654042494670957804E-15, 62.50000000000000000 ) ) ;
#204 = CLOSED_SHELL ( 'NONE', ( #149, #165, #63, #1 ) ) ;
#205 = PRODUCT_RELATED_PRODUCT_CATEGORY ( 'detail', '', ( #177 ) ) ;
#206 = DIRECTION ( 'NONE',  ( 3.491481338843133355E-15, -1.213121118695619454E-16, 1.000000000000000000 ) ) ;
#207 = VERTEX_POINT ( 'NONE', #58 ) ;
#208 = APPROVAL ( #28, 'UNSPECIFIED' ) ;
#209 = DIRECTION ( 'NONE',  ( 0.0000000000000000000, 0.0000000000000000000, 1.000000000000000000 ) ) ;
#210 = CALENDAR_DATE ( 2021, 17, 11 ) ;
#211 = APPROVAL_DATE_TIME ( #155, #208 ) ;
#212 = ADVANCED_FACE ( 'NONE', ( #168, #38 ), #41, .T. ) ;
#213 = AXIS2_PLACEMENT_3D ( 'NONE', #128, #202, #21 ) ;
#214 = APPROVAL_ROLE ( '' ) ;
#215 = COORDINATED_UNIVERSAL_TIME_OFFSET ( 1, 0, .AHEAD. ) ;
#216 = EDGE_LOOP ( 'NONE', ( #217 ) ) ;
#217 = ORIENTED_EDGE ( 'NONE', *, *, #68, .T. ) ;
#218 = CC_DESIGN_DATE_AND_TIME_ASSIGNMENT ( #100, #173, ( #135 ) ) ;
#219 = DIRECTION ( 'NONE',  ( 0.0000000000000000000, 1.000000000000000000, 0.0000000000000000000 ) ) ;
#220 = ORIENTED_EDGE ( 'NONE', *, *, #129, .F. ) ;
#221 = AXIS2_PLACEMENT_3D ( 'NONE', #162, #241, #146 ) ;
#222 = FACE_BOUND ( 'NONE', #196, .T. ) ;
#223 = CARTESIAN_POINT ( 'NONE',  ( 2.199633243471174140E-13, 3.499999999999989342, 63.00000000000000000 ) ) ;
#224 = APPROVAL ( #194, 'UNSPECIFIED' ) ;
#225 = VERTEX_POINT ( 'NONE', #151 ) ;
#226 = AXIS2_PLACEMENT_3D ( 'NONE', #198, #14, #49 ) ;
#227 = TOROIDAL_SURFACE ( 'NONE', #188, 10.99999999999999467, 8.000000000000000000 ) ;
#228 = CARTESIAN_POINT ( 'NONE',  ( 2.793185071074505422E-14, -9.704968949564951687E-16, 7.999999999999996447 ) ) ;
#229 = CC_DESIGN_PERSON_AND_ORGANIZATION_ASSIGNMENT ( #79, #232, ( #159 ) ) ;
#230 = DIRECTION ( 'NONE',  ( -3.491481338843133355E-15, 1.224646799147353207E-16, -1.000000000000000000 ) ) ;
#231 = DIRECTION ( 'NONE',  ( -3.491481338843133355E-15, 1.224646799147353207E-16, -1.000000000000000000 ) ) ;
#232 = PERSON_AND_ORGANIZATION_ROLE ( 'creator' ) ;
#233 = COORDINATED_UNIVERSAL_TIME_OFFSET ( 1, 0, .AHEAD. ) ;
#234 = AXIS2_PLACEMENT_3D ( 'NONE', #132, #206, #148 ) ;
#235 = PRODUCT_DEFINITION_SHAPE ( 'NONE', 'NONE',  #112 ) ;
#236 = CYLINDRICAL_SURFACE ( 'NONE', #226, 4.000000000000000000 ) ;
#237 = CIRCLE ( 'NONE', #99, 4.000000000000000000 ) ;
#238 = ORIENTED_EDGE ( 'NONE', *, *, #153, .T. ) ;
#239 = EDGE_LOOP ( 'NONE', ( #220 ) ) ;
#240 = PLANE ( 'NONE',  #242 ) ;
#241 = DIRECTION ( 'NONE',  ( 3.491481338843133355E-15, -1.224646799147353207E-16, 1.000000000000000000 ) ) ;
#242 = AXIS2_PLACEMENT_3D ( 'NONE', #158, #125, #67 ) ;
#243 = APPLICATION_CONTEXT ( 'configuration controlled 3d designs of mechanical parts and assemblies' ) ;
ENDSEC;
END-ISO-10303-21;
