ISO-10303-21;
HEADER;
FILE_DESCRIPTION (( 'STEP AP203' ),
    '1' );
FILE_NAME ('51708.step',
    '2021-11-17T09:31:56',
    ( '' ),
    ( '' ),
    'SwSTEP 2.0',
    'SolidWorks 2019',
    '' );
FILE_SCHEMA (( 'CONFIG_CONTROL_DESIGN' ));
ENDSEC;

DATA;
#1 = ORIENTED_EDGE ( 'NONE', *, *, #180, .T. ) ;
#2 = EDGE_CURVE ( 'NONE', #45, #45, #15, .T. ) ;
#3 = DIRECTION ( 'NONE',  ( 0.0000000000000000000, 1.000000000000000000, 0.0000000000000000000 ) ) ;
#4 = EDGE_LOOP ( 'NONE', ( #24 ) ) ;
#5 = ORIENTED_EDGE ( 'NONE', *, *, #95, .F. ) ;
#6 = ORIENTED_EDGE ( 'NONE', *, *, #180, .F. ) ;
#7 = DIRECTION ( 'NONE',  ( -4.237045877651918877E-31, -1.000000000000000000, -1.246832498358330099E-16 ) ) ;
#8 = APPROVAL_PERSON_ORGANIZATION ( #35, #44, #52 ) ;
#9 = CARTESIAN_POINT ( 'NONE',  ( 1.972686956446370535E-13, -6.919254415182546126E-15, 56.50000000000000711 ) ) ;
#10 = APPLICATION_PROTOCOL_DEFINITION ( 'international standard', 'config_control_design', 1994, #204 ) ;
#11 = CARTESIAN_POINT ( 'NONE',  ( 3.416024205785042377E-14, 2.999999999999999112, 9.783882181415028967 ) ) ;
#12 = CONICAL_SURFACE ( 'NONE', #200, 2.999999999999999112, 0.7853981633974482790 ) ;
#13 = DATE_AND_TIME ( #184, #97 ) ;
#14 = COORDINATED_UNIVERSAL_TIME_OFFSET ( 1, 0, .AHEAD. ) ;
#15 = CIRCLE ( 'NONE', #107, 2.999999999999999112 ) ;
#16 = PRODUCT ( '51708', '51708', '', ( #220 ) ) ;
#17 = PERSON_AND_ORGANIZATION ( #177, #108 ) ;
#18 = CC_DESIGN_PERSON_AND_ORGANIZATION_ASSIGNMENT ( #240, #124, ( #31 ) ) ;
#19 = CC_DESIGN_APPROVAL ( #44, ( #31 ) ) ;
#20 = CARTESIAN_POINT ( 'NONE',  ( 3.416024205785042377E-14, -3.377186266235002906E-16, 9.783882181415028967 ) ) ;
#21 = PLANE ( 'NONE',  #199 ) ;
#22 = EDGE_CURVE ( 'NONE', #98, #98, #96, .T. ) ;
#23 = EDGE_LOOP ( 'NONE', ( #39 ) ) ;
#24 = ORIENTED_EDGE ( 'NONE', *, *, #2, .T. ) ;
#25 = VERTEX_POINT ( 'NONE', #11 ) ;
#26 = CARTESIAN_POINT ( 'NONE',  ( 2.444036937190192718E-14, -2.499999999999993339, 6.999999999999998224 ) ) ;
#27 = PRODUCT_DEFINITION_SHAPE ( 'NONE', 'NONE',  #229 ) ;
#28 = DIRECTION ( 'NONE',  ( 3.491481338843133355E-15, -1.230103241304255752E-16, 1.000000000000000000 ) ) ;
#29 = UNCERTAINTY_MEASURE_WITH_UNIT (LENGTH_MEASURE( 1.000000000000000082E-05 ), #60, 'distance_accuracy_value', 'NONE');
#30 = VERTEX_POINT ( 'NONE', #181 ) ;
#31 = PRODUCT_DEFINITION_FORMATION_WITH_SPECIFIED_SOURCE ( 'ANY', '', #16, .NOT_KNOWN. ) ;
#32 = APPLICATION_PROTOCOL_DEFINITION ( 'international standard', 'config_control_design', 1994, #122 ) ;
#33 = DATE_AND_TIME ( #167, #195 ) ;
#34 = MANIFOLD_SOLID_BREP ( 'Corps-Déplacer/Copier1[2]', #218 ) ;
#35 = PERSON_AND_ORGANIZATION ( #177, #108 ) ;
#36 = ORIENTED_EDGE ( 'NONE', *, *, #212, .F. ) ;
#37 = EDGE_LOOP ( 'NONE', ( #6 ) ) ;
#38 = CC_DESIGN_APPROVAL ( #182, ( #118 ) ) ;
#39 = ORIENTED_EDGE ( 'NONE', *, *, #212, .T. ) ;
#40 = CARTESIAN_POINT ( 'NONE',  ( -6.413747168845438786E-31, 2.249639673992786412E-32, -1.836970198721029934E-16 ) ) ;
#41 = DIRECTION ( 'NONE',  ( 3.491481338843133355E-15, -1.213121118695619454E-16, 1.000000000000000000 ) ) ;
#42 = FACE_OUTER_BOUND ( 'NONE', #93, .T. ) ;
#43 = DIRECTION ( 'NONE',  ( -3.491481338843133355E-15, 1.224646799147353207E-16, -1.000000000000000000 ) ) ;
#44 = APPROVAL ( #81, 'UNSPECIFIED' ) ;
#45 = VERTEX_POINT ( 'NONE', #236 ) ;
#46 = AXIS2_PLACEMENT_3D ( 'NONE', #152, #210, #131 ) ;
#47 = APPROVAL_PERSON_ORGANIZATION ( #145, #182, #106 ) ;
#48 = DIRECTION ( 'NONE',  ( 4.275831445896959482E-31, 1.000000000000000000, 1.224646799147353207E-16 ) ) ;
#49 = DIRECTION ( 'NONE',  ( -4.294882511864260911E-31, -1.000000000000000000, -1.230103241304255752E-16 ) ) ;
#50 = DIRECTION ( 'NONE',  ( 3.491481338843133355E-15, -1.230103241304255752E-16, 1.000000000000000000 ) ) ;
#51 = SECURITY_CLASSIFICATION_LEVEL ( 'unclassified' ) ;
#52 = APPROVAL_ROLE ( '' ) ;
#53 = ORIENTED_EDGE ( 'NONE', *, *, #22, .T. ) ;
#54 = PLANE ( 'NONE',  #58 ) ;
#55 = EDGE_LOOP ( 'NONE', ( #1 ) ) ;
#56 = PLANE ( 'NONE',  #90 ) ;
#57 = DIRECTION ( 'NONE',  ( 3.491481338843133355E-15, -1.213121118695619454E-16, 1.000000000000000000 ) ) ;
#58 = AXIS2_PLACEMENT_3D ( 'NONE', #191, #76, #231 ) ;
#59 = FACE_OUTER_BOUND ( 'NONE', #173, .T. ) ;
#60 =( LENGTH_UNIT ( ) NAMED_UNIT ( * ) SI_UNIT ( .MILLI., .METRE. ) );
#61 = CARTESIAN_POINT ( 'NONE',  ( 0.0000000000000000000, 0.0000000000000000000, 0.0000000000000000000 ) ) ;
#62 = ADVANCED_FACE ( 'NONE', ( #42 ), #54, .F. ) ;
#63 = CARTESIAN_POINT ( 'NONE',  ( -2.061543605694844887E-30, -2.399999999999999467, -5.904495558260426227E-16 ) ) ;
#64 = CARTESIAN_POINT ( 'NONE',  ( 1.990144363140586139E-13, 2.499999999999998668, 57.00000000000000000 ) ) ;
#65 = PERSON_AND_ORGANIZATION_ROLE ( 'creator' ) ;
#66 = CIRCLE ( 'NONE', #130, 2.500000000000005773 ) ;
#67 = AXIS2_PLACEMENT_3D ( 'NONE', #174, #198, #215 ) ;
#68 = PERSON_AND_ORGANIZATION ( #177, #108 ) ;
#69 = DATE_AND_TIME ( #206, #86 ) ;
#70 = APPROVAL_ROLE ( '' ) ;
#71 = CC_DESIGN_DATE_AND_TIME_ASSIGNMENT ( #33, #201, ( #229 ) ) ;
#72 = EDGE_LOOP ( 'NONE', ( #5 ) ) ;
#73 = DIRECTION ( 'NONE',  ( 3.491481338843133355E-15, -1.213121118695619454E-16, 1.000000000000000000 ) ) ;
#74 = AXIS2_PLACEMENT_3D ( 'NONE', #153, #57, #128 ) ;
#75 = DIRECTION ( 'NONE',  ( 3.491481338843133355E-15, -1.224646799147353207E-16, 1.000000000000000000 ) ) ;
#76 = DIRECTION ( 'NONE',  ( 3.491481338843133355E-15, -1.224646799147353207E-16, 1.000000000000000000 ) ) ;
#77 = EDGE_CURVE ( 'NONE', #237, #237, #183, .T. ) ;
#78 = LOCAL_TIME ( 10, 31, 56.00000000000000000, #242 ) ;
#79 = CARTESIAN_POINT ( 'NONE',  ( 2.444036937190192718E-14, -2.499999999999993339, 6.999999999999998224 ) ) ;
#80 = FACE_OUTER_BOUND ( 'NONE', #4, .T. ) ;
#81 = APPROVAL_STATUS ( 'not_yet_approved' ) ;
#82 = ADVANCED_BREP_SHAPE_REPRESENTATION ( '51708', ( #188, #34, #104 ), #150 ) ;
#83 = ADVANCED_FACE ( 'NONE', ( #109, #209 ), #175, .F. ) ;
#84 = DIRECTION ( 'NONE',  ( 0.0000000000000000000, 0.0000000000000000000, 1.000000000000000000 ) ) ;
#85 = CC_DESIGN_SECURITY_CLASSIFICATION ( #118, ( #31 ) ) ;
#86 = LOCAL_TIME ( 10, 31, 56.00000000000000000, #203 ) ;
#87 = APPROVAL_DATE_TIME ( #164, #44 ) ;
#88 = PERSON_AND_ORGANIZATION ( #177, #108 ) ;
#89 = ORIENTED_EDGE ( 'NONE', *, *, #22, .F. ) ;
#90 = AXIS2_PLACEMENT_3D ( 'NONE', #40, #112, #189 ) ;
#91 = ORIENTED_EDGE ( 'NONE', *, *, #2, .F. ) ;
#92 = CARTESIAN_POINT ( 'NONE',  ( 2.444036937190193033E-14, 2.249639673992785317E-32, 6.999999999999999112 ) ) ;
#93 = EDGE_LOOP ( 'NONE', ( #89 ) ) ;
#94 = ORIENTED_EDGE ( 'NONE', *, *, #160, .T. ) ;
#95 = EDGE_CURVE ( 'NONE', #25, #25, #163, .T. ) ;
#96 = CIRCLE ( 'NONE', #46, 2.499999999999992895 ) ;
#97 = LOCAL_TIME ( 10, 31, 56.00000000000000000, #202 ) ;
#98 = VERTEX_POINT ( 'NONE', #26 ) ;
#99 = VERTEX_POINT ( 'NONE', #63 ) ;
#100 = VERTEX_POINT ( 'NONE', #64 ) ;
#101 = AXIS2_PLACEMENT_3D ( 'NONE', #20, #73, #149 ) ;
#102 = APPROVAL_STATUS ( 'not_yet_approved' ) ;
#103 = PERSON_AND_ORGANIZATION_ROLE ( 'classification_officer' ) ;
#104 = AXIS2_PLACEMENT_3D ( 'NONE', #157, #84, #142 ) ;
#105 = PERSON_AND_ORGANIZATION_ROLE ( 'design_owner' ) ;
#106 = APPROVAL_ROLE ( '' ) ;
#107 = AXIS2_PLACEMENT_3D ( 'NONE', #169, #226, #3 ) ;
#108 = ORGANIZATION ( 'UNSPECIFIED', 'UNSPECIFIED', '' ) ;
#109 = FACE_OUTER_BOUND ( 'NONE', #72, .T. ) ;
#110 = CC_DESIGN_PERSON_AND_ORGANIZATION_ASSIGNMENT ( #144, #103, ( #118 ) ) ;
#111 = DIRECTION ( 'NONE',  ( -4.321715026827967765E-31, -1.000000000000000000, -1.213121118695619454E-16 ) ) ;
#112 = DIRECTION ( 'NONE',  ( -3.491481338843133355E-15, 1.224646799147353207E-16, -1.000000000000000000 ) ) ;
#113 = AXIS2_PLACEMENT_3D ( 'NONE', #186, #41, #111 ) ;
#114 = APPROVAL ( #102, 'UNSPECIFIED' ) ;
#115 = EDGE_LOOP ( 'NONE', ( #228 ) ) ;
#116 = DIRECTION ( 'NONE',  ( -4.235589747682262194E-31, -1.000000000000000000, -1.213121118695619207E-16 ) ) ;
#117 = FACE_BOUND ( 'NONE', #55, .T. ) ;
#118 = SECURITY_CLASSIFICATION ( '', '', #51 ) ;
#119 = CC_DESIGN_PERSON_AND_ORGANIZATION_ASSIGNMENT ( #241, #222, ( #31 ) ) ;
#120 = CARTESIAN_POINT ( 'NONE',  ( 3.491481338843124974E-16, -1.230103241304255721E-17, 0.09999999999999975575 ) ) ;
#121 = PLANE ( 'NONE',  #67 ) ;
#122 = APPLICATION_CONTEXT ( 'configuration controlled 3d designs of mechanical parts and assemblies' ) ;
#123 = FACE_OUTER_BOUND ( 'NONE', #208, .T. ) ;
#124 = PERSON_AND_ORGANIZATION_ROLE ( 'design_supplier' ) ;
#125 = DATE_TIME_ROLE ( 'classification_date' ) ;
#126 = AXIS2_PLACEMENT_3D ( 'NONE', #120, #50, #136 ) ;
#127 = APPROVAL_DATE_TIME ( #223, #182 ) ;
#128 = DIRECTION ( 'NONE',  ( 0.0000000000000000000, -1.000000000000000000, 0.0000000000000000000 ) ) ;
#129 = ADVANCED_FACE ( 'NONE', ( #187 ), #21, .T. ) ;
#130 = AXIS2_PLACEMENT_3D ( 'NONE', #214, #196, #179 ) ;
#131 = DIRECTION ( 'NONE',  ( 0.0000000000000000000, -1.000000000000000000, 0.0000000000000000000 ) ) ;
#132 = EDGE_LOOP ( 'NONE', ( #91 ) ) ;
#133 = CC_DESIGN_PERSON_AND_ORGANIZATION_ASSIGNMENT ( #88, #65, ( #229 ) ) ;
#134 = CYLINDRICAL_SURFACE ( 'NONE', #154, 2.499999999999992895 ) ;
#135 = CARTESIAN_POINT ( 'NONE',  ( -6.413747168845438786E-31, 0.0000000000000000000, -1.836970198721029934E-16 ) ) ;
#136 = DIRECTION ( 'NONE',  ( -4.237045877651918877E-31, -1.000000000000000000, -1.246832498358330099E-16 ) ) ;
#137 = DIRECTION ( 'NONE',  ( 3.491481338843133355E-15, -1.230103241304255752E-16, 1.000000000000000000 ) ) ;
#138 = PRODUCT_RELATED_PRODUCT_CATEGORY ( 'detail', '', ( #16 ) ) ;
#139 = CARTESIAN_POINT ( 'NONE',  ( -1.030771802847422444E-30, 6.186855680732838892E-33, -2.952247779130213113E-16 ) ) ;
#140 = ADVANCED_FACE ( 'NONE', ( #230 ), #56, .T. ) ;
#141 =( NAMED_UNIT ( * ) SI_UNIT ( $, .STERADIAN. ) SOLID_ANGLE_UNIT ( ) );
#142 = DIRECTION ( 'NONE',  ( 1.000000000000000000, 0.0000000000000000000, 0.0000000000000000000 ) ) ;
#143 = APPROVAL_DATE_TIME ( #69, #114 ) ;
#144 = PERSON_AND_ORGANIZATION ( #177, #108 ) ;
#145 = PERSON_AND_ORGANIZATION ( #177, #108 ) ;
#146 = LOCAL_TIME ( 10, 31, 56.00000000000000000, #243 ) ;
#147 = CC_DESIGN_DATE_AND_TIME_ASSIGNMENT ( #13, #125, ( #118 ) ) ;
#148 = EDGE_LOOP ( 'NONE', ( #53 ) ) ;
#149 = DIRECTION ( 'NONE',  ( 0.0000000000000000000, 1.000000000000000000, 0.0000000000000000000 ) ) ;
#150 =( GEOMETRIC_REPRESENTATION_CONTEXT ( 3 ) GLOBAL_UNCERTAINTY_ASSIGNED_CONTEXT ( ( #29 ) ) GLOBAL_UNIT_ASSIGNED_CONTEXT ( ( #60, #235, #141 ) ) REPRESENTATION_CONTEXT ( 'NONE', 'WORKASPACE' ) );
#151 = DIRECTION ( 'NONE',  ( -4.275831445896958607E-31, -1.000000000000000000, -1.224646799147353207E-16 ) ) ;
#152 = CARTESIAN_POINT ( 'NONE',  ( 2.444036937190192718E-14, -8.491847830869334698E-16, 6.999999999999998224 ) ) ;
#153 = CARTESIAN_POINT ( 'NONE',  ( 2.444036937190192718E-14, -8.491847830869334698E-16, 6.999999999999998224 ) ) ;
#154 = AXIS2_PLACEMENT_3D ( 'NONE', #135, #213, #116 ) ;
#155 = ADVANCED_FACE ( 'NONE', ( #59, #233 ), #134, .T. ) ;
#156 = CYLINDRICAL_SURFACE ( 'NONE', #168, 2.999999999999999556 ) ;
#157 = CARTESIAN_POINT ( 'NONE',  ( 0.0000000000000000000, 0.0000000000000000000, 0.0000000000000000000 ) ) ;
#158 = DESIGN_CONTEXT ( 'detailed design', #122, 'design' ) ;
#159 = DIRECTION ( 'NONE',  ( -3.491481338843133355E-15, 1.224646799147353207E-16, -1.000000000000000000 ) ) ;
#160 = EDGE_CURVE ( 'NONE', #100, #100, #66, .T. ) ;
#161 = CARTESIAN_POINT ( 'NONE',  ( 3.491481338843124974E-16, -1.230103241304255721E-17, 0.09999999999999975575 ) ) ;
#162 = SHAPE_DEFINITION_REPRESENTATION ( #27, #82 ) ;
#163 = CIRCLE ( 'NONE', #101, 2.999999999999999556 ) ;
#164 = DATE_AND_TIME ( #185, #146 ) ;
#165 = AXIS2_PLACEMENT_3D ( 'NONE', #139, #137, #49 ) ;
#166 = APPROVAL_STATUS ( 'not_yet_approved' ) ;
#167 = CALENDAR_DATE ( 2021, 17, 11 ) ;
#168 = AXIS2_PLACEMENT_3D ( 'NONE', #61, #43, #48 ) ;
#169 = CARTESIAN_POINT ( 'NONE',  ( 1.972686956446370535E-13, -6.919254415182546126E-15, 56.50000000000000711 ) ) ;
#170 = EDGE_LOOP ( 'NONE', ( #171 ) ) ;
#171 = ORIENTED_EDGE ( 'NONE', *, *, #77, .T. ) ;
#172 = EDGE_LOOP ( 'NONE', ( #94 ) ) ;
#173 = EDGE_LOOP ( 'NONE', ( #205 ) ) ;
#174 = CARTESIAN_POINT ( 'NONE',  ( 1.990144363140586139E-13, 1.874699728327315989E-32, 57.00000000000000000 ) ) ;
#175 = TOROIDAL_SURFACE ( 'NONE', #113, 10.49999999999999112, 8.000000000000000000 ) ;
#176 = AXIS2_PLACEMENT_3D ( 'NONE', #161, #28, #7 ) ;
#177 = PERSON ( 'UNSPECIFIED', 'UNSPECIFIED', 'UNSPECIFIED', ('UNSPECIFIED'), ('UNSPECIFIED'), ('UNSPECIFIED') ) ;
#178 = FACE_OUTER_BOUND ( 'NONE', #115, .T. ) ;
#179 = DIRECTION ( 'NONE',  ( 0.0000000000000000000, 1.000000000000000000, 0.0000000000000000000 ) ) ;
#180 = EDGE_CURVE ( 'NONE', #99, #99, #227, .T. ) ;
#181 = CARTESIAN_POINT ( 'NONE',  ( 3.491481338843114620E-16, -2.500000000000000000, 0.09999999999999945044 ) ) ;
#182 = APPROVAL ( #166, 'UNSPECIFIED' ) ;
#183 = CIRCLE ( 'NONE', #74, 2.499999999999992895 ) ;
#184 = CALENDAR_DATE ( 2021, 17, 11 ) ;
#185 = CALENDAR_DATE ( 2021, 17, 11 ) ;
#186 = CARTESIAN_POINT ( 'NONE',  ( 2.444036937190192718E-14, 0.0000000000000000000, 6.999999999999998224 ) ) ;
#187 = FACE_OUTER_BOUND ( 'NONE', #170, .T. ) ;
#188 = MANIFOLD_SOLID_BREP ( 'Corps-Déplacer/Copier1[1]', #207 ) ;
#189 = DIRECTION ( 'NONE',  ( 4.275831445896958607E-31, 1.000000000000000000, 1.224646799147353207E-16 ) ) ;
#190 = CONICAL_SURFACE ( 'NONE', #176, 2.500000000000000000, 0.7853981633974514986 ) ;
#191 = CARTESIAN_POINT ( 'NONE',  ( 2.444036937190193033E-14, 2.249639673992785317E-32, 6.999999999999999112 ) ) ;
#192 = EDGE_LOOP ( 'NONE', ( #36 ) ) ;
#193 = CC_DESIGN_PERSON_AND_ORGANIZATION_ASSIGNMENT ( #68, #105, ( #16 ) ) ;
#194 = FACE_OUTER_BOUND ( 'NONE', #132, .T. ) ;
#195 = LOCAL_TIME ( 10, 31, 56.00000000000000000, #14 ) ;
#196 = DIRECTION ( 'NONE',  ( -3.491481338843133355E-15, 1.224646799147353207E-16, -1.000000000000000000 ) ) ;
#197 = FACE_OUTER_BOUND ( 'NONE', #192, .T. ) ;
#198 = DIRECTION ( 'NONE',  ( -3.491481338843133355E-15, 1.224646799147353207E-16, -1.000000000000000000 ) ) ;
#199 = AXIS2_PLACEMENT_3D ( 'NONE', #92, #75, #151 ) ;
#200 = AXIS2_PLACEMENT_3D ( 'NONE', #9, #159, #239 ) ;
#201 = DATE_TIME_ROLE ( 'creation_date' ) ;
#202 = COORDINATED_UNIVERSAL_TIME_OFFSET ( 1, 0, .AHEAD. ) ;
#203 = COORDINATED_UNIVERSAL_TIME_OFFSET ( 1, 0, .AHEAD. ) ;
#204 = APPLICATION_CONTEXT ( 'configuration controlled 3d designs of mechanical parts and assemblies' ) ;
#205 = ORIENTED_EDGE ( 'NONE', *, *, #77, .F. ) ;
#206 = CALENDAR_DATE ( 2021, 17, 11 ) ;
#207 = CLOSED_SHELL ( 'NONE', ( #221, #232, #238, #83, #62 ) ) ;
#208 = EDGE_LOOP ( 'NONE', ( #211 ) ) ;
#209 = FACE_OUTER_BOUND ( 'NONE', #148, .T. ) ;
#210 = DIRECTION ( 'NONE',  ( 3.491481338843133355E-15, -1.213121118695619454E-16, 1.000000000000000000 ) ) ;
#211 = ORIENTED_EDGE ( 'NONE', *, *, #160, .F. ) ;
#212 = EDGE_CURVE ( 'NONE', #30, #30, #216, .T. ) ;
#213 = DIRECTION ( 'NONE',  ( 3.491481338843133355E-15, -1.213121118695619454E-16, 1.000000000000000000 ) ) ;
#214 = CARTESIAN_POINT ( 'NONE',  ( 1.990144363140586139E-13, -6.980486755139912911E-15, 57.00000000000000000 ) ) ;
#215 = DIRECTION ( 'NONE',  ( 4.275831445896958607E-31, 1.000000000000000000, 1.224646799147353207E-16 ) ) ;
#216 = CIRCLE ( 'NONE', #126, 2.500000000000000000 ) ;
#217 = FACE_BOUND ( 'NONE', #172, .T. ) ;
#218 = CLOSED_SHELL ( 'NONE', ( #155, #129, #224, #140 ) ) ;
#219 = APPROVAL_PERSON_ORGANIZATION ( #17, #114, #70 ) ;
#220 = MECHANICAL_CONTEXT ( 'NONE', #204, 'mechanical' ) ;
#221 = ADVANCED_FACE ( 'NONE', ( #80, #178 ), #156, .T. ) ;
#222 = PERSON_AND_ORGANIZATION_ROLE ( 'creator' ) ;
#223 = DATE_AND_TIME ( #225, #78 ) ;
#224 = ADVANCED_FACE ( 'NONE', ( #117, #197 ), #190, .T. ) ;
#225 = CALENDAR_DATE ( 2021, 17, 11 ) ;
#226 = DIRECTION ( 'NONE',  ( -3.491481338843133355E-15, 1.224646799147353207E-16, -1.000000000000000000 ) ) ;
#227 = CIRCLE ( 'NONE', #165, 2.399999999999999467 ) ;
#228 = ORIENTED_EDGE ( 'NONE', *, *, #95, .T. ) ;
#229 = PRODUCT_DEFINITION ( 'UNKNOWN', '', #31, #158 ) ;
#230 = FACE_OUTER_BOUND ( 'NONE', #37, .T. ) ;
#231 = DIRECTION ( 'NONE',  ( -4.275831445896958607E-31, -1.000000000000000000, -1.224646799147353207E-16 ) ) ;
#232 = ADVANCED_FACE ( 'NONE', ( #217, #194 ), #12, .T. ) ;
#233 = FACE_OUTER_BOUND ( 'NONE', #23, .T. ) ;
#234 = CC_DESIGN_APPROVAL ( #114, ( #229 ) ) ;
#235 =( NAMED_UNIT ( * ) PLANE_ANGLE_UNIT ( ) SI_UNIT ( $, .RADIAN. ) );
#236 = CARTESIAN_POINT ( 'NONE',  ( 1.972686956446370535E-13, 2.999999999999992450, 56.50000000000000711 ) ) ;
#237 = VERTEX_POINT ( 'NONE', #79 ) ;
#238 = ADVANCED_FACE ( 'NONE', ( #123 ), #121, .F. ) ;
#239 = DIRECTION ( 'NONE',  ( 0.0000000000000000000, 1.000000000000000000, 0.0000000000000000000 ) ) ;
#240 = PERSON_AND_ORGANIZATION ( #177, #108 ) ;
#241 = PERSON_AND_ORGANIZATION ( #177, #108 ) ;
#242 = COORDINATED_UNIVERSAL_TIME_OFFSET ( 1, 0, .AHEAD. ) ;
#243 = COORDINATED_UNIVERSAL_TIME_OFFSET ( 1, 0, .AHEAD. ) ;
ENDSEC;
END-ISO-10303-21;
