ISO-10303-21;
HEADER;
FILE_DESCRIPTION (( 'STEP AP203' ),
    '1' );
FILE_NAME ('51707.step',
    '2021-11-17T09:31:55',
    ( '' ),
    ( '' ),
    'SwSTEP 2.0',
    'SolidWorks 2019',
    '' );
FILE_SCHEMA (( 'CONFIG_CONTROL_DESIGN' ));
ENDSEC;

DATA;
#1 = CARTESIAN_POINT ( 'NONE',  ( 3.491481338843127439E-16, -1.230103241304256645E-17, 0.09999999999999982514 ) ) ;
#2 = ORIENTED_EDGE ( 'NONE', *, *, #46, .T. ) ;
#3 = ORIENTED_EDGE ( 'NONE', *, *, #54, .T. ) ;
#4 = EDGE_LOOP ( 'NONE', ( #2 ) ) ;
#5 = APPROVAL ( #203, 'UNSPECIFIED' ) ;
#6 = CARTESIAN_POINT ( 'NONE',  ( 0.0000000000000000000, 0.0000000000000000000, 0.0000000000000000000 ) ) ;
#7 =( NAMED_UNIT ( * ) PLANE_ANGLE_UNIT ( ) SI_UNIT ( $, .RADIAN. ) );
#8 = AXIS2_PLACEMENT_3D ( 'NONE', #27, #15, #131 ) ;
#9 = DIRECTION ( 'NONE',  ( 3.491481338843133355E-15, -1.213121118695619454E-16, 1.000000000000000000 ) ) ;
#10 = DIRECTION ( 'NONE',  ( 3.491481338843133355E-15, -1.230103241304255752E-16, 1.000000000000000000 ) ) ;
#11 = LOCAL_TIME ( 10, 31, 55.00000000000000000, #94 ) ;
#12 = DIRECTION ( 'NONE',  ( 4.275831445896958607E-31, 1.000000000000000000, 1.224646799147353207E-16 ) ) ;
#13 = AXIS2_PLACEMENT_3D ( 'NONE', #78, #230, #151 ) ;
#14 = SECURITY_CLASSIFICATION_LEVEL ( 'unclassified' ) ;
#15 = DIRECTION ( 'NONE',  ( 0.0000000000000000000, 0.0000000000000000000, 1.000000000000000000 ) ) ;
#16 = DATE_AND_TIME ( #147, #11 ) ;
#17 = DIRECTION ( 'NONE',  ( 3.491481338843133355E-15, -1.224646799147353207E-16, 1.000000000000000000 ) ) ;
#18 = CARTESIAN_POINT ( 'NONE',  ( 1.976178437785213858E-13, -6.931500883174021061E-15, 56.60000000000000853 ) ) ;
#19 = PRODUCT_DEFINITION ( 'UNKNOWN', '', #146, #161 ) ;
#20 = CARTESIAN_POINT ( 'NONE',  ( 2.094888803305880013E-14, 2.249639673992785317E-32, 6.000000000000000000 ) ) ;
#21 = EDGE_LOOP ( 'NONE', ( #190 ) ) ;
#22 = VERTEX_POINT ( 'NONE', #70 ) ;
#23 = FACE_OUTER_BOUND ( 'NONE', #176, .T. ) ;
#24 = LOCAL_TIME ( 10, 31, 55.00000000000000000, #165 ) ;
#25 = FACE_OUTER_BOUND ( 'NONE', #177, .T. ) ;
#26 = MANIFOLD_SOLID_BREP ( 'Corps-Déplacer/Copier1[1]', #242 ) ;
#27 = CARTESIAN_POINT ( 'NONE',  ( 0.0000000000000000000, 0.0000000000000000000, 0.0000000000000000000 ) ) ;
#28 = DIRECTION ( 'NONE',  ( 0.0000000000000000000, 1.000000000000000000, 0.0000000000000000000 ) ) ;
#29 =( GEOMETRIC_REPRESENTATION_CONTEXT ( 3 ) GLOBAL_UNCERTAINTY_ASSIGNED_CONTEXT ( ( #198 ) ) GLOBAL_UNIT_ASSIGNED_CONTEXT ( ( #139, #7, #236 ) ) REPRESENTATION_CONTEXT ( 'NONE', 'WORKASPACE' ) );
#30 = PERSON_AND_ORGANIZATION_ROLE ( 'design_supplier' ) ;
#31 = MANIFOLD_SOLID_BREP ( 'Corps-Déplacer/Copier1[2]', #108 ) ;
#32 = APPROVAL_ROLE ( '' ) ;
#33 = COORDINATED_UNIVERSAL_TIME_OFFSET ( 1, 0, .AHEAD. ) ;
#34 = APPROVAL ( #223, 'UNSPECIFIED' ) ;
#35 = PERSON_AND_ORGANIZATION ( #145, #153 ) ;
#36 = ORIENTED_EDGE ( 'NONE', *, *, #76, .F. ) ;
#37 = PERSON_AND_ORGANIZATION ( #145, #153 ) ;
#38 = CC_DESIGN_PERSON_AND_ORGANIZATION_ASSIGNMENT ( #35, #93, ( #146 ) ) ;
#39 = LOCAL_TIME ( 10, 31, 55.00000000000000000, #33 ) ;
#40 = FACE_OUTER_BOUND ( 'NONE', #133, .T. ) ;
#41 = DIRECTION ( 'NONE',  ( 3.491481338843133355E-15, -1.213121118695619454E-16, 1.000000000000000000 ) ) ;
#42 = PRODUCT_RELATED_PRODUCT_CATEGORY ( 'detail', '', ( #167 ) ) ;
#43 = FACE_OUTER_BOUND ( 'NONE', #55, .T. ) ;
#44 = CC_DESIGN_APPROVAL ( #34, ( #205 ) ) ;
#45 = EDGE_LOOP ( 'NONE', ( #233 ) ) ;
#46 = EDGE_CURVE ( 'NONE', #88, #88, #193, .T. ) ;
#47 = CARTESIAN_POINT ( 'NONE',  ( -1.632201267192032977E-30, -1.899999999999999245, -4.674810227491711525E-16 ) ) ;
#48 = AXIS2_PLACEMENT_3D ( 'NONE', #18, #84, #64 ) ;
#49 = CC_DESIGN_APPROVAL ( #5, ( #19 ) ) ;
#50 = FACE_OUTER_BOUND ( 'NONE', #135, .T. ) ;
#51 = PLANE ( 'NONE',  #123 ) ;
#52 = CARTESIAN_POINT ( 'NONE',  ( -6.413747168845438786E-31, 0.0000000000000000000, -1.836970198721029934E-16 ) ) ;
#53 = LOCAL_TIME ( 10, 31, 55.00000000000000000, #243 ) ;
#54 = EDGE_CURVE ( 'NONE', #142, #142, #89, .T. ) ;
#55 = EDGE_LOOP ( 'NONE', ( #132 ) ) ;
#56 = DATE_TIME_ROLE ( 'creation_date' ) ;
#57 = APPROVAL_ROLE ( '' ) ;
#58 = EDGE_LOOP ( 'NONE', ( #36 ) ) ;
#59 = ORIENTED_EDGE ( 'NONE', *, *, #160, .T. ) ;
#60 = CYLINDRICAL_SURFACE ( 'NONE', #80, 2.999999999999999556 ) ;
#61 = ADVANCED_FACE ( 'NONE', ( #126, #119 ), #72, .F. ) ;
#62 = CARTESIAN_POINT ( 'NONE',  ( 2.094888803305880013E-14, -7.278726712173716724E-16, 6.000000000000000000 ) ) ;
#63 = CONICAL_SURFACE ( 'NONE', #200, 2.000000000000000000, 0.7853981633974514986 ) ;
#64 = DIRECTION ( 'NONE',  ( 0.0000000000000000000, 1.000000000000000000, 0.0000000000000000000 ) ) ;
#65 = DIRECTION ( 'NONE',  ( -4.294882511864260911E-31, -1.000000000000000000, -1.230103241304255752E-16 ) ) ;
#66 = CARTESIAN_POINT ( 'NONE',  ( 1.990144363140586139E-13, -6.980486755139912911E-15, 57.00000000000000000 ) ) ;
#67 = APPLICATION_CONTEXT ( 'configuration controlled 3d designs of mechanical parts and assemblies' ) ;
#68 = APPLICATION_PROTOCOL_DEFINITION ( 'international standard', 'config_control_design', 1994, #67 ) ;
#69 = CC_DESIGN_PERSON_AND_ORGANIZATION_ASSIGNMENT ( #77, #172, ( #167 ) ) ;
#70 = CARTESIAN_POINT ( 'NONE',  ( 1.976178437785213858E-13, 2.999999999999992450, 56.60000000000000853 ) ) ;
#71 = FACE_OUTER_BOUND ( 'NONE', #79, .T. ) ;
#72 = TOROIDAL_SURFACE ( 'NONE', #157, 9.999999999999991118, 8.000000000000000000 ) ;
#73 = CC_DESIGN_SECURITY_CLASSIFICATION ( #205, ( #146 ) ) ;
#74 = PERSON_AND_ORGANIZATION ( #145, #153 ) ;
#75 = APPROVAL ( #186, 'UNSPECIFIED' ) ;
#76 = EDGE_CURVE ( 'NONE', #22, #22, #110, .T. ) ;
#77 = PERSON_AND_ORGANIZATION ( #145, #153 ) ;
#78 = CARTESIAN_POINT ( 'NONE',  ( 1.976178437785213858E-13, -6.931500883174021061E-15, 56.60000000000000853 ) ) ;
#79 = EDGE_LOOP ( 'NONE', ( #101 ) ) ;
#80 = AXIS2_PLACEMENT_3D ( 'NONE', #6, #97, #136 ) ;
#81 = APPLICATION_CONTEXT ( 'configuration controlled 3d designs of mechanical parts and assemblies' ) ;
#82 = FACE_OUTER_BOUND ( 'NONE', #229, .T. ) ;
#83 = ORIENTED_EDGE ( 'NONE', *, *, #234, .T. ) ;
#84 = DIRECTION ( 'NONE',  ( -3.491481338843133355E-15, 1.224646799147353207E-16, -1.000000000000000000 ) ) ;
#85 = ADVANCED_FACE ( 'NONE', ( #211, #191 ), #189, .T. ) ;
#86 = DIRECTION ( 'NONE',  ( -3.491481338843133355E-15, 1.224646799147353207E-16, -1.000000000000000000 ) ) ;
#87 = CARTESIAN_POINT ( 'NONE',  ( 2.094888803305880013E-14, -1.999999999999994893, 6.000000000000000000 ) ) ;
#88 = VERTEX_POINT ( 'NONE', #163 ) ;
#89 = CIRCLE ( 'NONE', #221, 2.000000000000000000 ) ;
#90 = ADVANCED_BREP_SHAPE_REPRESENTATION ( '51707', ( #26, #31, #8 ), #29 ) ;
#91 = MECHANICAL_CONTEXT ( 'NONE', #67, 'mechanical' ) ;
#92 = EDGE_CURVE ( 'NONE', #217, #217, #116, .T. ) ;
#93 = PERSON_AND_ORGANIZATION_ROLE ( 'creator' ) ;
#94 = COORDINATED_UNIVERSAL_TIME_OFFSET ( 1, 0, .AHEAD. ) ;
#95 = DATE_AND_TIME ( #241, #148 ) ;
#96 = AXIS2_PLACEMENT_3D ( 'NONE', #66, #86, #28 ) ;
#97 = DIRECTION ( 'NONE',  ( -3.491481338843133355E-15, 1.224646799147353207E-16, -1.000000000000000000 ) ) ;
#98 = ADVANCED_FACE ( 'NONE', ( #82 ), #156, .T. ) ;
#99 = EDGE_LOOP ( 'NONE', ( #59 ) ) ;
#100 = DIRECTION ( 'NONE',  ( 3.491481338843133355E-15, -1.224646799147353207E-16, 1.000000000000000000 ) ) ;
#101 = ORIENTED_EDGE ( 'NONE', *, *, #234, .F. ) ;
#102 = ADVANCED_FACE ( 'NONE', ( #40, #232 ), #60, .T. ) ;
#103 = AXIS2_PLACEMENT_3D ( 'NONE', #219, #127, #12 ) ;
#104 = AXIS2_PLACEMENT_3D ( 'NONE', #109, #9, #129 ) ;
#105 = DIRECTION ( 'NONE',  ( 3.491481338843133355E-15, -1.230103241304255752E-16, 1.000000000000000000 ) ) ;
#106 = CARTESIAN_POINT ( 'NONE',  ( 1.990144363140586139E-13, 2.599999999999994760, 57.00000000000000000 ) ) ;
#107 = DIRECTION ( 'NONE',  ( -4.235589747682263070E-31, -1.000000000000000000, -1.213121118695619454E-16 ) ) ;
#108 = CLOSED_SHELL ( 'NONE', ( #215, #98, #202, #174 ) ) ;
#109 = CARTESIAN_POINT ( 'NONE',  ( 2.094888803305880013E-14, -7.278726712173716724E-16, 6.000000000000000000 ) ) ;
#110 = CIRCLE ( 'NONE', #13, 2.999999999999999112 ) ;
#111 = SHAPE_DEFINITION_REPRESENTATION ( #117, #90 ) ;
#112 = APPROVAL_DATE_TIME ( #130, #34 ) ;
#113 = PERSON_AND_ORGANIZATION ( #145, #153 ) ;
#114 = APPROVAL_DATE_TIME ( #201, #75 ) ;
#115 = CALENDAR_DATE ( 2021, 17, 11 ) ;
#116 = CIRCLE ( 'NONE', #134, 2.999999999999999556 ) ;
#117 = PRODUCT_DEFINITION_SHAPE ( 'NONE', 'NONE',  #19 ) ;
#118 = AXIS2_PLACEMENT_3D ( 'NONE', #52, #159, #107 ) ;
#119 = FACE_OUTER_BOUND ( 'NONE', #4, .T. ) ;
#120 = CC_DESIGN_DATE_AND_TIME_ASSIGNMENT ( #16, #56, ( #19 ) ) ;
#121 = DIRECTION ( 'NONE',  ( 0.0000000000000000000, -1.000000000000000000, 0.0000000000000000000 ) ) ;
#122 = EDGE_LOOP ( 'NONE', ( #206 ) ) ;
#123 = AXIS2_PLACEMENT_3D ( 'NONE', #128, #182, #144 ) ;
#124 = ADVANCED_FACE ( 'NONE', ( #43 ), #192, .F. ) ;
#125 = CARTESIAN_POINT ( 'NONE',  ( 2.094888803305879698E-14, 0.0000000000000000000, 5.999999999999999112 ) ) ;
#126 = FACE_OUTER_BOUND ( 'NONE', #21, .T. ) ;
#127 = DIRECTION ( 'NONE',  ( -3.491481338843133355E-15, 1.224646799147353207E-16, -1.000000000000000000 ) ) ;
#128 = CARTESIAN_POINT ( 'NONE',  ( -6.413747168845438786E-31, 2.249639673992786412E-32, -1.836970198721029934E-16 ) ) ;
#129 = DIRECTION ( 'NONE',  ( 0.0000000000000000000, -1.000000000000000000, 0.0000000000000000000 ) ) ;
#130 = DATE_AND_TIME ( #240, #53 ) ;
#131 = DIRECTION ( 'NONE',  ( 1.000000000000000000, 0.0000000000000000000, 0.0000000000000000000 ) ) ;
#132 = ORIENTED_EDGE ( 'NONE', *, *, #46, .F. ) ;
#133 = EDGE_LOOP ( 'NONE', ( #152 ) ) ;
#134 = AXIS2_PLACEMENT_3D ( 'NONE', #138, #41, #209 ) ;
#135 = EDGE_LOOP ( 'NONE', ( #226 ) ) ;
#136 = DIRECTION ( 'NONE',  ( 4.275831445896959482E-31, 1.000000000000000000, 1.224646799147353207E-16 ) ) ;
#137 = DIRECTION ( 'NONE',  ( 3.491481338843133355E-15, -1.213121118695619454E-16, 1.000000000000000000 ) ) ;
#138 = CARTESIAN_POINT ( 'NONE',  ( 3.447133711199227560E-14, -4.698397889640662783E-16, 9.872983346207428568 ) ) ;
#139 =( LENGTH_UNIT ( ) NAMED_UNIT ( * ) SI_UNIT ( .MILLI., .METRE. ) );
#140 = CYLINDRICAL_SURFACE ( 'NONE', #118, 1.999999999999993561 ) ;
#141 = CC_DESIGN_PERSON_AND_ORGANIZATION_ASSIGNMENT ( #207, #185, ( #19 ) ) ;
#142 = VERTEX_POINT ( 'NONE', #238 ) ;
#143 = ADVANCED_FACE ( 'NONE', ( #183 ), #199, .F. ) ;
#144 = DIRECTION ( 'NONE',  ( 4.275831445896958607E-31, 1.000000000000000000, 1.224646799147353207E-16 ) ) ;
#145 = PERSON ( 'UNSPECIFIED', 'UNSPECIFIED', 'UNSPECIFIED', ('UNSPECIFIED'), ('UNSPECIFIED'), ('UNSPECIFIED') ) ;
#146 = PRODUCT_DEFINITION_FORMATION_WITH_SPECIFIED_SOURCE ( 'ANY', '', #167, .NOT_KNOWN. ) ;
#147 = CALENDAR_DATE ( 2021, 17, 11 ) ;
#148 = LOCAL_TIME ( 10, 31, 55.00000000000000000, #171 ) ;
#149 = PERSON_AND_ORGANIZATION_ROLE ( 'classification_officer' ) ;
#150 = CC_DESIGN_DATE_AND_TIME_ASSIGNMENT ( #95, #224, ( #205 ) ) ;
#151 = DIRECTION ( 'NONE',  ( 0.0000000000000000000, 1.000000000000000000, 0.0000000000000000000 ) ) ;
#152 = ORIENTED_EDGE ( 'NONE', *, *, #76, .T. ) ;
#153 = ORGANIZATION ( 'UNSPECIFIED', 'UNSPECIFIED', '' ) ;
#154 = DIRECTION ( 'NONE',  ( -4.275831445896958607E-31, -1.000000000000000000, -1.224646799147353207E-16 ) ) ;
#155 = ORIENTED_EDGE ( 'NONE', *, *, #92, .T. ) ;
#156 = PLANE ( 'NONE',  #208 ) ;
#157 = AXIS2_PLACEMENT_3D ( 'NONE', #125, #194, #213 ) ;
#158 = CC_DESIGN_APPROVAL ( #75, ( #146 ) ) ;
#159 = DIRECTION ( 'NONE',  ( 3.491481338843133355E-15, -1.213121118695619454E-16, 1.000000000000000000 ) ) ;
#160 = EDGE_CURVE ( 'NONE', #184, #184, #168, .T. ) ;
#161 = DESIGN_CONTEXT ( 'detailed design', #81, 'design' ) ;
#162 = APPROVAL_PERSON_ORGANIZATION ( #37, #5, #32 ) ;
#163 = CARTESIAN_POINT ( 'NONE',  ( 2.094888803305880013E-14, -1.999999999999994893, 6.000000000000000000 ) ) ;
#164 = VERTEX_POINT ( 'NONE', #87 ) ;
#165 = COORDINATED_UNIVERSAL_TIME_OFFSET ( 1, 0, .AHEAD. ) ;
#166 = AXIS2_PLACEMENT_3D ( 'NONE', #239, #105, #65 ) ;
#167 = PRODUCT ( '51707', '51707', '', ( #91 ) ) ;
#168 = CIRCLE ( 'NONE', #166, 1.899999999999999245 ) ;
#169 = APPROVAL_PERSON_ORGANIZATION ( #113, #75, #170 ) ;
#170 = APPROVAL_ROLE ( '' ) ;
#171 = COORDINATED_UNIVERSAL_TIME_OFFSET ( 1, 0, .AHEAD. ) ;
#172 = PERSON_AND_ORGANIZATION_ROLE ( 'design_owner' ) ;
#173 = CIRCLE ( 'NONE', #96, 2.600000000000001421 ) ;
#174 = ADVANCED_FACE ( 'NONE', ( #25 ), #51, .T. ) ;
#175 = ORIENTED_EDGE ( 'NONE', *, *, #160, .F. ) ;
#176 = EDGE_LOOP ( 'NONE', ( #3 ) ) ;
#177 = EDGE_LOOP ( 'NONE', ( #175 ) ) ;
#178 = CARTESIAN_POINT ( 'NONE',  ( 2.094888803305880013E-14, 2.249639673992785317E-32, 6.000000000000000000 ) ) ;
#179 = DIRECTION ( 'NONE',  ( -4.333342374871280669E-31, -1.000000000000000000, -1.219727444046192488E-16 ) ) ;
#180 = AXIS2_PLACEMENT_3D ( 'NONE', #62, #137, #121 ) ;
#181 = CARTESIAN_POINT ( 'NONE',  ( 3.447133711199227560E-14, 2.999999999999999112, 9.872983346207428568 ) ) ;
#182 = DIRECTION ( 'NONE',  ( -3.491481338843133355E-15, 1.224646799147353207E-16, -1.000000000000000000 ) ) ;
#183 = FACE_OUTER_BOUND ( 'NONE', #45, .T. ) ;
#184 = VERTEX_POINT ( 'NONE', #47 ) ;
#185 = PERSON_AND_ORGANIZATION_ROLE ( 'creator' ) ;
#186 = APPROVAL_STATUS ( 'not_yet_approved' ) ;
#187 = PERSON_AND_ORGANIZATION ( #145, #153 ) ;
#188 = PERSON_AND_ORGANIZATION ( #145, #153 ) ;
#189 = CONICAL_SURFACE ( 'NONE', #48, 2.999999999999999112, 0.7853981633974569387 ) ;
#190 = ORIENTED_EDGE ( 'NONE', *, *, #92, .F. ) ;
#191 = FACE_OUTER_BOUND ( 'NONE', #58, .T. ) ;
#192 = PLANE ( 'NONE',  #218 ) ;
#193 = CIRCLE ( 'NONE', #180, 1.999999999999994005 ) ;
#194 = DIRECTION ( 'NONE',  ( 3.491481338843133355E-15, -1.213121118695619454E-16, 1.000000000000000000 ) ) ;
#195 = DIRECTION ( 'NONE',  ( -4.333342374871280669E-31, -1.000000000000000000, -1.219727444046192488E-16 ) ) ;
#196 = CC_DESIGN_PERSON_AND_ORGANIZATION_ASSIGNMENT ( #187, #30, ( #146 ) ) ;
#197 = VERTEX_POINT ( 'NONE', #106 ) ;
#198 = UNCERTAINTY_MEASURE_WITH_UNIT (LENGTH_MEASURE( 1.000000000000000082E-05 ), #139, 'distance_accuracy_value', 'NONE');
#199 = PLANE ( 'NONE',  #103 ) ;
#200 = AXIS2_PLACEMENT_3D ( 'NONE', #220, #10, #179 ) ;
#201 = DATE_AND_TIME ( #204, #24 ) ;
#202 = ADVANCED_FACE ( 'NONE', ( #237, #50 ), #63, .T. ) ;
#203 = APPROVAL_STATUS ( 'not_yet_approved' ) ;
#204 = CALENDAR_DATE ( 2021, 17, 11 ) ;
#205 = SECURITY_CLASSIFICATION ( '', '', #14 ) ;
#206 = ORIENTED_EDGE ( 'NONE', *, *, #212, .T. ) ;
#207 = PERSON_AND_ORGANIZATION ( #145, #153 ) ;
#208 = AXIS2_PLACEMENT_3D ( 'NONE', #178, #17, #154 ) ;
#209 = DIRECTION ( 'NONE',  ( 0.0000000000000000000, 1.000000000000000000, 0.0000000000000000000 ) ) ;
#210 = APPROVAL_PERSON_ORGANIZATION ( #74, #34, #57 ) ;
#211 = FACE_BOUND ( 'NONE', #122, .T. ) ;
#212 = EDGE_CURVE ( 'NONE', #197, #197, #173, .T. ) ;
#213 = DIRECTION ( 'NONE',  ( -2.612169667348915925E-31, -1.000000000000000000, -1.213121118695619454E-16 ) ) ;
#214 = DIRECTION ( 'NONE',  ( 3.491481338843133355E-15, -1.230103241304255752E-16, 1.000000000000000000 ) ) ;
#215 = ADVANCED_FACE ( 'NONE', ( #71, #23 ), #140, .T. ) ;
#216 = EDGE_LOOP ( 'NONE', ( #155 ) ) ;
#217 = VERTEX_POINT ( 'NONE', #181 ) ;
#218 = AXIS2_PLACEMENT_3D ( 'NONE', #20, #100, #235 ) ;
#219 = CARTESIAN_POINT ( 'NONE',  ( 1.990144363140586139E-13, 1.949687717460405585E-32, 57.00000000000000000 ) ) ;
#220 = CARTESIAN_POINT ( 'NONE',  ( 3.491481338843127439E-16, -1.230103241304256645E-17, 0.09999999999999982514 ) ) ;
#221 = AXIS2_PLACEMENT_3D ( 'NONE', #1, #214, #195 ) ;
#222 = CIRCLE ( 'NONE', #104, 1.999999999999994005 ) ;
#223 = APPROVAL_STATUS ( 'not_yet_approved' ) ;
#224 = DATE_TIME_ROLE ( 'classification_date' ) ;
#225 = APPLICATION_PROTOCOL_DEFINITION ( 'international standard', 'config_control_design', 1994, #81 ) ;
#226 = ORIENTED_EDGE ( 'NONE', *, *, #54, .F. ) ;
#227 = APPROVAL_DATE_TIME ( #228, #5 ) ;
#228 = DATE_AND_TIME ( #115, #39 ) ;
#229 = EDGE_LOOP ( 'NONE', ( #83 ) ) ;
#230 = DIRECTION ( 'NONE',  ( -3.491481338843133355E-15, 1.224646799147353207E-16, -1.000000000000000000 ) ) ;
#231 = CC_DESIGN_PERSON_AND_ORGANIZATION_ASSIGNMENT ( #188, #149, ( #205 ) ) ;
#232 = FACE_OUTER_BOUND ( 'NONE', #216, .T. ) ;
#233 = ORIENTED_EDGE ( 'NONE', *, *, #212, .F. ) ;
#234 = EDGE_CURVE ( 'NONE', #164, #164, #222, .T. ) ;
#235 = DIRECTION ( 'NONE',  ( -4.275831445896958607E-31, -1.000000000000000000, -1.224646799147353207E-16 ) ) ;
#236 =( NAMED_UNIT ( * ) SI_UNIT ( $, .STERADIAN. ) SOLID_ANGLE_UNIT ( ) );
#237 = FACE_BOUND ( 'NONE', #99, .T. ) ;
#238 = CARTESIAN_POINT ( 'NONE',  ( 3.491481338843119057E-16, -2.000000000000000000, 0.09999999999999958922 ) ) ;
#239 = CARTESIAN_POINT ( 'NONE',  ( -8.161735899378239734E-31, -1.373773509559900573E-33, -2.337614069013626164E-16 ) ) ;
#240 = CALENDAR_DATE ( 2021, 17, 11 ) ;
#241 = CALENDAR_DATE ( 2021, 17, 11 ) ;
#242 = CLOSED_SHELL ( 'NONE', ( #102, #85, #143, #61, #124 ) ) ;
#243 = COORDINATED_UNIVERSAL_TIME_OFFSET ( 1, 0, .AHEAD. ) ;
ENDSEC;
END-ISO-10303-21;
