ISO-10303-21;
HEADER;
FILE_DESCRIPTION (( 'STEP AP203' ),
    '1' );
FILE_NAME ('51706.step',
    '2021-11-17T09:31:55',
    ( '' ),
    ( '' ),
    'SwSTEP 2.0',
    'SolidWorks 2019',
    '' );
FILE_SCHEMA (( 'CONFIG_CONTROL_DESIGN' ));
ENDSEC;

DATA;
#1 = COORDINATED_UNIVERSAL_TIME_OFFSET ( 1, 0, .AHEAD. ) ;
#2 = AXIS2_PLACEMENT_3D ( 'NONE', #184, #166, #14 ) ;
#3 = APPROVAL_DATE_TIME ( #189, #67 ) ;
#4 =( NAMED_UNIT ( * ) PLANE_ANGLE_UNIT ( ) SI_UNIT ( $, .RADIAN. ) );
#5 = EDGE_LOOP ( 'NONE', ( #177 ) ) ;
#6 = APPROVAL_DATE_TIME ( #172, #31 ) ;
#7 = FACE_OUTER_BOUND ( 'NONE', #26, .T. ) ;
#8 = FACE_BOUND ( 'NONE', #196, .T. ) ;
#9 = PRODUCT ( '51706', '51706', '', ( #194 ) ) ;
#10 = CIRCLE ( 'NONE', #216, 1.499999999999993339 ) ;
#11 = CARTESIAN_POINT ( 'NONE',  ( -1.245515928440635533E-30, -1.449999999999999956, -3.567299399782341359E-16 ) ) ;
#12 = AXIS2_PLACEMENT_3D ( 'NONE', #141, #68, #152 ) ;
#13 = FACE_OUTER_BOUND ( 'NONE', #81, .T. ) ;
#14 = DIRECTION ( 'NONE',  ( 0.0000000000000000000, 1.000000000000000000, 0.0000000000000000000 ) ) ;
#15 = DIRECTION ( 'NONE',  ( 0.0000000000000000000, -1.000000000000000000, 0.0000000000000000000 ) ) ;
#16 = PERSON_AND_ORGANIZATION ( #181, #19 ) ;
#17 = MANIFOLD_SOLID_BREP ( 'Corps-Déplacer/Copier1[2]', #21 ) ;
#18 = CC_DESIGN_DATE_AND_TIME_ASSIGNMENT ( #77, #150, ( #30 ) ) ;
#19 = ORGANIZATION ( 'UNSPECIFIED', 'UNSPECIFIED', '' ) ;
#20 = CALENDAR_DATE ( 2021, 17, 11 ) ;
#21 = CLOSED_SHELL ( 'NONE', ( #220, #128, #89, #44 ) ) ;
#22 = DIRECTION ( 'NONE',  ( -3.491481338843133355E-15, 1.224646799147353207E-16, -1.000000000000000000 ) ) ;
#23 =( NAMED_UNIT ( * ) SI_UNIT ( $, .STERADIAN. ) SOLID_ANGLE_UNIT ( ) );
#24 = ORIENTED_EDGE ( 'NONE', *, *, #201, .T. ) ;
#25 = ORIENTED_EDGE ( 'NONE', *, *, #144, .F. ) ;
#26 = EDGE_LOOP ( 'NONE', ( #46 ) ) ;
#27 = ORIENTED_EDGE ( 'NONE', *, *, #173, .T. ) ;
#28 = FACE_OUTER_BOUND ( 'NONE', #193, .T. ) ;
#29 = AXIS2_PLACEMENT_3D ( 'NONE', #82, #209, #226 ) ;
#30 = SECURITY_CLASSIFICATION ( '', '', #221 ) ;
#31 = APPROVAL ( #76, 'UNSPECIFIED' ) ;
#32 = CARTESIAN_POINT ( 'NONE',  ( -6.413747168845438786E-31, 0.0000000000000000000, -1.836970198721029934E-16 ) ) ;
#33 = AXIS2_PLACEMENT_3D ( 'NONE', #36, #202, #111 ) ;
#34 = DIRECTION ( 'NONE',  ( -4.275831445896958607E-31, -1.000000000000000000, -1.224646799147353207E-16 ) ) ;
#35 = VERTEX_POINT ( 'NONE', #145 ) ;
#36 = CARTESIAN_POINT ( 'NONE',  ( 1.571166602479410010E-14, 2.249639673992785864E-32, 4.500000000000000000 ) ) ;
#37 = ADVANCED_BREP_SHAPE_REPRESENTATION ( '51706', ( #107, #17, #131 ), #70 ) ;
#38 = CALENDAR_DATE ( 2021, 17, 11 ) ;
#39 = APPROVAL_DATE_TIME ( #133, #188 ) ;
#40 = PERSON_AND_ORGANIZATION_ROLE ( 'design_owner' ) ;
#41 = ORIENTED_EDGE ( 'NONE', *, *, #180, .F. ) ;
#42 = LOCAL_TIME ( 10, 31, 55.00000000000000000, #168 ) ;
#43 = CARTESIAN_POINT ( 'NONE',  ( -6.227579642203177664E-31, -8.188107169805898372E-33, -1.783649699891170679E-16 ) ) ;
#44 = ADVANCED_FACE ( 'NONE', ( #66 ), #154, .T. ) ;
#45 = CALENDAR_DATE ( 2021, 17, 11 ) ;
#46 = ORIENTED_EDGE ( 'NONE', *, *, #144, .T. ) ;
#47 = EDGE_LOOP ( 'NONE', ( #136 ) ) ;
#48 = CIRCLE ( 'NONE', #230, 1.449999999999999956 ) ;
#49 = FACE_OUTER_BOUND ( 'NONE', #232, .T. ) ;
#50 = DIRECTION ( 'NONE',  ( 0.0000000000000000000, 1.000000000000000000, 0.0000000000000000000 ) ) ;
#51 = CC_DESIGN_SECURITY_CLASSIFICATION ( #30, ( #146 ) ) ;
#52 = PRODUCT_DEFINITION ( 'UNKNOWN', '', #146, #211 ) ;
#53 = DIRECTION ( 'NONE',  ( 3.491481338843133355E-15, -1.230103241304255752E-16, 1.000000000000000000 ) ) ;
#54 = CONICAL_SURFACE ( 'NONE', #118, 3.000000000000002665, 0.7853981633974482790 ) ;
#55 = CARTESIAN_POINT ( 'NONE',  ( 1.571166602479409694E-14, -5.459045034130286310E-16, 4.499999999999999112 ) ) ;
#56 = FACE_BOUND ( 'NONE', #5, .T. ) ;
#57 = APPROVAL_ROLE ( '' ) ;
#58 = APPROVAL_PERSON_ORGANIZATION ( #115, #31, #57 ) ;
#59 = APPROVAL_ROLE ( '' ) ;
#60 = CC_DESIGN_PERSON_AND_ORGANIZATION_ASSIGNMENT ( #169, #98, ( #30 ) ) ;
#61 = DIRECTION ( 'NONE',  ( 1.000000000000000000, 0.0000000000000000000, 0.0000000000000000000 ) ) ;
#62 = DIRECTION ( 'NONE',  ( 4.275831445896958607E-31, 1.000000000000000000, 1.224646799147353207E-16 ) ) ;
#63 = CLOSED_SHELL ( 'NONE', ( #140, #204, #96, #85, #156 ) ) ;
#64 = AXIS2_PLACEMENT_3D ( 'NONE', #55, #126, #94 ) ;
#65 = PERSON_AND_ORGANIZATION_ROLE ( 'creator' ) ;
#66 = FACE_OUTER_BOUND ( 'NONE', #197, .T. ) ;
#67 = APPROVAL ( #116, 'UNSPECIFIED' ) ;
#68 = DIRECTION ( 'NONE',  ( -3.491481338843133355E-15, 1.224646799147353207E-16, -1.000000000000000000 ) ) ;
#69 = ORIENTED_EDGE ( 'NONE', *, *, #243, .F. ) ;
#70 =( GEOMETRIC_REPRESENTATION_CONTEXT ( 3 ) GLOBAL_UNCERTAINTY_ASSIGNED_CONTEXT ( ( #174 ) ) GLOBAL_UNIT_ASSIGNED_CONTEXT ( ( #242, #4, #23 ) ) REPRESENTATION_CONTEXT ( 'NONE', 'WORKASPACE' ) );
#71 = DIRECTION ( 'NONE',  ( 3.491481338843133355E-15, -1.213121118695619454E-16, 1.000000000000000000 ) ) ;
#72 = DIRECTION ( 'NONE',  ( -3.491481338843133355E-15, 1.224646799147353207E-16, -1.000000000000000000 ) ) ;
#73 = CARTESIAN_POINT ( 'NONE',  ( 1.571166602479409694E-14, -1.499999999999994005, 4.499999999999999112 ) ) ;
#74 = CARTESIAN_POINT ( 'NONE',  ( 1.990144363140586139E-13, -6.980486755139912911E-15, 57.00000000000000000 ) ) ;
#75 = LOCAL_TIME ( 10, 31, 55.00000000000000000, #79 ) ;
#76 = APPROVAL_STATUS ( 'not_yet_approved' ) ;
#77 = DATE_AND_TIME ( #20, #179 ) ;
#78 = AXIS2_PLACEMENT_3D ( 'NONE', #142, #124, #34 ) ;
#79 = COORDINATED_UNIVERSAL_TIME_OFFSET ( 1, 0, .AHEAD. ) ;
#80 = COORDINATED_UNIVERSAL_TIME_OFFSET ( 1, 0, .AHEAD. ) ;
#81 = EDGE_LOOP ( 'NONE', ( #27 ) ) ;
#82 = CARTESIAN_POINT ( 'NONE',  ( 1.745740669421562487E-16, -6.150516206521294011E-18, 0.04999999999999987788 ) ) ;
#83 = ORIENTED_EDGE ( 'NONE', *, *, #201, .F. ) ;
#84 = FACE_OUTER_BOUND ( 'NONE', #100, .T. ) ;
#85 = ADVANCED_FACE ( 'NONE', ( #139, #7 ), #238, .F. ) ;
#86 = DIRECTION ( 'NONE',  ( -4.296287563461140172E-31, -1.000000000000000000, -1.213121118695619454E-16 ) ) ;
#87 = AXIS2_PLACEMENT_3D ( 'NONE', #32, #105, #178 ) ;
#88 = CYLINDRICAL_SURFACE ( 'NONE', #87, 1.499999999999994005 ) ;
#89 = ADVANCED_FACE ( 'NONE', ( #8, #84 ), #130, .T. ) ;
#90 = AXIS2_PLACEMENT_3D ( 'NONE', #205, #228, #62 ) ;
#91 = CYLINDRICAL_SURFACE ( 'NONE', #182, 3.000000000000001332 ) ;
#92 = EDGE_CURVE ( 'NONE', #183, #183, #135, .T. ) ;
#93 = CARTESIAN_POINT ( 'NONE',  ( 1.745740669421562487E-16, -6.150516206521294011E-18, 0.04999999999999987788 ) ) ;
#94 = DIRECTION ( 'NONE',  ( 0.0000000000000000000, -1.000000000000000000, 0.0000000000000000000 ) ) ;
#95 = PERSON_AND_ORGANIZATION_ROLE ( 'design_supplier' ) ;
#96 = ADVANCED_FACE ( 'NONE', ( #207 ), #212, .F. ) ;
#97 = PERSON_AND_ORGANIZATION_ROLE ( 'creator' ) ;
#98 = PERSON_AND_ORGANIZATION_ROLE ( 'classification_officer' ) ;
#99 = APPLICATION_PROTOCOL_DEFINITION ( 'international standard', 'config_control_design', 1994, #215 ) ;
#100 = EDGE_LOOP ( 'NONE', ( #41 ) ) ;
#101 = ORIENTED_EDGE ( 'NONE', *, *, #180, .T. ) ;
#102 = DIRECTION ( 'NONE',  ( 3.491481338843133355E-15, -1.213121118695619454E-16, 1.000000000000000000 ) ) ;
#103 = CC_DESIGN_PERSON_AND_ORGANIZATION_ASSIGNMENT ( #208, #95, ( #146 ) ) ;
#104 = EDGE_LOOP ( 'NONE', ( #24 ) ) ;
#105 = DIRECTION ( 'NONE',  ( 3.491481338843133355E-15, -1.213121118695619454E-16, 1.000000000000000000 ) ) ;
#106 = AXIS2_PLACEMENT_3D ( 'NONE', #157, #102, #86 ) ;
#107 = MANIFOLD_SOLID_BREP ( 'Corps-Déplacer/Copier1[1]', #63 ) ;
#108 = CIRCLE ( 'NONE', #162, 1.500000000000000000 ) ;
#109 = PLANE ( 'NONE',  #33 ) ;
#110 = CC_DESIGN_PERSON_AND_ORGANIZATION_ASSIGNMENT ( #16, #65, ( #146 ) ) ;
#111 = DIRECTION ( 'NONE',  ( -4.275831445896958607E-31, -1.000000000000000000, -1.224646799147353207E-16 ) ) ;
#112 = PLANE ( 'NONE',  #78 ) ;
#113 = DIRECTION ( 'NONE',  ( -4.294882511864260911E-31, -1.000000000000000000, -1.230103241304255752E-16 ) ) ;
#114 = EDGE_CURVE ( 'NONE', #143, #143, #48, .T. ) ;
#115 = PERSON_AND_ORGANIZATION ( #181, #19 ) ;
#116 = APPROVAL_STATUS ( 'not_yet_approved' ) ;
#117 = COORDINATED_UNIVERSAL_TIME_OFFSET ( 1, 0, .AHEAD. ) ;
#118 = AXIS2_PLACEMENT_3D ( 'NONE', #219, #164, #203 ) ;
#119 = ORIENTED_EDGE ( 'NONE', *, *, #114, .F. ) ;
#120 = DATE_TIME_ROLE ( 'creation_date' ) ;
#121 = EDGE_LOOP ( 'NONE', ( #176 ) ) ;
#122 = ORIENTED_EDGE ( 'NONE', *, *, #114, .T. ) ;
#123 = PRODUCT_DEFINITION_SHAPE ( 'NONE', 'NONE',  #52 ) ;
#124 = DIRECTION ( 'NONE',  ( 3.491481338843133355E-15, -1.224646799147353207E-16, 1.000000000000000000 ) ) ;
#125 = APPROVAL_PERSON_ORGANIZATION ( #223, #67, #59 ) ;
#126 = DIRECTION ( 'NONE',  ( 3.491481338843133355E-15, -1.213121118695619454E-16, 1.000000000000000000 ) ) ;
#127 = DIRECTION ( 'NONE',  ( 4.275831445896958607E-31, 1.000000000000000000, 1.224646799147353207E-16 ) ) ;
#128 = ADVANCED_FACE ( 'NONE', ( #13 ), #112, .T. ) ;
#129 = DIRECTION ( 'NONE',  ( 3.491481338843133355E-15, -1.230103241304255752E-16, 1.000000000000000000 ) ) ;
#130 = CONICAL_SURFACE ( 'NONE', #29, 1.500000000000000000, 0.7853981633974490562 ) ;
#131 = AXIS2_PLACEMENT_3D ( 'NONE', #167, #227, #61 ) ;
#132 = CALENDAR_DATE ( 2021, 17, 11 ) ;
#133 = DATE_AND_TIME ( #137, #42 ) ;
#134 = DIRECTION ( 'NONE',  ( 0.0000000000000000000, 1.000000000000000000, 0.0000000000000000000 ) ) ;
#135 = CIRCLE ( 'NONE', #165, 3.000000000000002665 ) ;
#136 = ORIENTED_EDGE ( 'NONE', *, *, #92, .T. ) ;
#137 = CALENDAR_DATE ( 2021, 17, 11 ) ;
#138 = APPLICATION_CONTEXT ( 'configuration controlled 3d designs of mechanical parts and assemblies' ) ;
#139 = FACE_OUTER_BOUND ( 'NONE', #231, .T. ) ;
#140 = ADVANCED_FACE ( 'NONE', ( #200, #186 ), #91, .T. ) ;
#141 = CARTESIAN_POINT ( 'NONE',  ( -6.413747168845438786E-31, 2.249639673992786412E-32, -1.836970198721029934E-16 ) ) ;
#142 = CARTESIAN_POINT ( 'NONE',  ( 1.571166602479410010E-14, 2.249639673992785864E-32, 4.500000000000000000 ) ) ;
#143 = VERTEX_POINT ( 'NONE', #11 ) ;
#144 = EDGE_CURVE ( 'NONE', #163, #163, #235, .T. ) ;
#145 = CARTESIAN_POINT ( 'NONE',  ( 1.745740669421556077E-16, -1.500000000000000000, 0.04999999999999969746 ) ) ;
#146 = PRODUCT_DEFINITION_FORMATION_WITH_SPECIFIED_SOURCE ( 'ANY', '', #9, .NOT_KNOWN. ) ;
#147 = VERTEX_POINT ( 'NONE', #214 ) ;
#148 = FACE_OUTER_BOUND ( 'NONE', #121, .T. ) ;
#149 = DATE_AND_TIME ( #45, #218 ) ;
#150 = DATE_TIME_ROLE ( 'classification_date' ) ;
#151 = SHAPE_DEFINITION_REPRESENTATION ( #123, #37 ) ;
#152 = DIRECTION ( 'NONE',  ( 4.275831445896958607E-31, 1.000000000000000000, 1.224646799147353207E-16 ) ) ;
#153 = APPROVAL_ROLE ( '' ) ;
#154 = PLANE ( 'NONE',  #12 ) ;
#155 = CIRCLE ( 'NONE', #170, 2.700000000000001066 ) ;
#156 = ADVANCED_FACE ( 'NONE', ( #49 ), #109, .F. ) ;
#157 = CARTESIAN_POINT ( 'NONE',  ( 1.571166602479409694E-14, 0.0000000000000000000, 4.499999999999999112 ) ) ;
#158 = CARTESIAN_POINT ( 'NONE',  ( 1.571166602479409694E-14, -1.499999999999994005, 4.499999999999999112 ) ) ;
#159 = LOCAL_TIME ( 10, 31, 55.00000000000000000, #117 ) ;
#160 = VERTEX_POINT ( 'NONE', #237 ) ;
#161 = CC_DESIGN_PERSON_AND_ORGANIZATION_ASSIGNMENT ( #192, #40, ( #9 ) ) ;
#162 = AXIS2_PLACEMENT_3D ( 'NONE', #93, #129, #198 ) ;
#163 = VERTEX_POINT ( 'NONE', #158 ) ;
#164 = DIRECTION ( 'NONE',  ( -3.491481338843133355E-15, 1.224646799147353207E-16, -1.000000000000000000 ) ) ;
#165 = AXIS2_PLACEMENT_3D ( 'NONE', #234, #22, #134 ) ;
#166 = DIRECTION ( 'NONE',  ( 3.491481338843133355E-15, -1.213121118695619454E-16, 1.000000000000000000 ) ) ;
#167 = CARTESIAN_POINT ( 'NONE',  ( 0.0000000000000000000, 0.0000000000000000000, 0.0000000000000000000 ) ) ;
#168 = COORDINATED_UNIVERSAL_TIME_OFFSET ( 1, 0, .AHEAD. ) ;
#169 = PERSON_AND_ORGANIZATION ( #181, #19 ) ;
#170 = AXIS2_PLACEMENT_3D ( 'NONE', #74, #240, #50 ) ;
#171 = EDGE_LOOP ( 'NONE', ( #69 ) ) ;
#172 = DATE_AND_TIME ( #38, #159 ) ;
#173 = EDGE_CURVE ( 'NONE', #236, #236, #10, .T. ) ;
#174 = UNCERTAINTY_MEASURE_WITH_UNIT (LENGTH_MEASURE( 1.000000000000000082E-05 ), #242, 'distance_accuracy_value', 'NONE');
#175 = EDGE_LOOP ( 'NONE', ( #210 ) ) ;
#176 = ORIENTED_EDGE ( 'NONE', *, *, #92, .F. ) ;
#177 = ORIENTED_EDGE ( 'NONE', *, *, #243, .T. ) ;
#178 = DIRECTION ( 'NONE',  ( -4.235589747682261318E-31, -1.000000000000000000, -1.213121118695619454E-16 ) ) ;
#179 = LOCAL_TIME ( 10, 31, 55.00000000000000000, #1 ) ;
#180 = EDGE_CURVE ( 'NONE', #35, #35, #108, .T. ) ;
#181 = PERSON ( 'UNSPECIFIED', 'UNSPECIFIED', 'UNSPECIFIED', ('UNSPECIFIED'), ('UNSPECIFIED'), ('UNSPECIFIED') ) ;
#182 = AXIS2_PLACEMENT_3D ( 'NONE', #185, #72, #127 ) ;
#183 = VERTEX_POINT ( 'NONE', #199 ) ;
#184 = CARTESIAN_POINT ( 'NONE',  ( 3.199485097688210482E-14, -5.657620255690611605E-16, 9.163689526544418484 ) ) ;
#185 = CARTESIAN_POINT ( 'NONE',  ( 0.0000000000000000000, 0.0000000000000000000, 0.0000000000000000000 ) ) ;
#186 = FACE_OUTER_BOUND ( 'NONE', #104, .T. ) ;
#187 = APPROVAL_STATUS ( 'not_yet_approved' ) ;
#188 = APPROVAL ( #187, 'UNSPECIFIED' ) ;
#189 = DATE_AND_TIME ( #132, #75 ) ;
#190 = PERSON_AND_ORGANIZATION ( #181, #19 ) ;
#191 = CC_DESIGN_APPROVAL ( #31, ( #52 ) ) ;
#192 = PERSON_AND_ORGANIZATION ( #181, #19 ) ;
#193 = EDGE_LOOP ( 'NONE', ( #101 ) ) ;
#194 = MECHANICAL_CONTEXT ( 'NONE', #138, 'mechanical' ) ;
#195 = CC_DESIGN_APPROVAL ( #188, ( #146 ) ) ;
#196 = EDGE_LOOP ( 'NONE', ( #122 ) ) ;
#197 = EDGE_LOOP ( 'NONE', ( #119 ) ) ;
#198 = DIRECTION ( 'NONE',  ( -4.333342374871280669E-31, -1.000000000000000000, -1.219727444046192488E-16 ) ) ;
#199 = CARTESIAN_POINT ( 'NONE',  ( 1.979669919124056423E-13, 2.999999999999995559, 56.70000000000000284 ) ) ;
#200 = FACE_OUTER_BOUND ( 'NONE', #47, .T. ) ;
#201 = EDGE_CURVE ( 'NONE', #160, #160, #241, .T. ) ;
#202 = DIRECTION ( 'NONE',  ( 3.491481338843133355E-15, -1.224646799147353207E-16, 1.000000000000000000 ) ) ;
#203 = DIRECTION ( 'NONE',  ( 0.0000000000000000000, 1.000000000000000000, 0.0000000000000000000 ) ) ;
#204 = ADVANCED_FACE ( 'NONE', ( #56, #148 ), #54, .T. ) ;
#205 = CARTESIAN_POINT ( 'NONE',  ( 1.990144363140586139E-13, 2.024675706593498191E-32, 57.00000000000000000 ) ) ;
#206 = CC_DESIGN_APPROVAL ( #67, ( #30 ) ) ;
#207 = FACE_OUTER_BOUND ( 'NONE', #171, .T. ) ;
#208 = PERSON_AND_ORGANIZATION ( #181, #19 ) ;
#209 = DIRECTION ( 'NONE',  ( 3.491481338843133355E-15, -1.230103241304255752E-16, 1.000000000000000000 ) ) ;
#210 = ORIENTED_EDGE ( 'NONE', *, *, #173, .F. ) ;
#211 = DESIGN_CONTEXT ( 'detailed design', #215, 'design' ) ;
#212 = PLANE ( 'NONE',  #90 ) ;
#213 = CARTESIAN_POINT ( 'NONE',  ( 1.571166602479409694E-14, -5.459045034130286310E-16, 4.499999999999999112 ) ) ;
#214 = CARTESIAN_POINT ( 'NONE',  ( 1.990144363140586139E-13, 2.699999999999993960, 57.00000000000000000 ) ) ;
#215 = APPLICATION_CONTEXT ( 'configuration controlled 3d designs of mechanical parts and assemblies' ) ;
#216 = AXIS2_PLACEMENT_3D ( 'NONE', #213, #71, #15 ) ;
#217 = FACE_OUTER_BOUND ( 'NONE', #175, .T. ) ;
#218 = LOCAL_TIME ( 10, 31, 55.00000000000000000, #80 ) ;
#219 = CARTESIAN_POINT ( 'NONE',  ( 1.979669919124056423E-13, -6.943747351165492840E-15, 56.70000000000000284 ) ) ;
#220 = ADVANCED_FACE ( 'NONE', ( #217, #28 ), #88, .T. ) ;
#221 = SECURITY_CLASSIFICATION_LEVEL ( 'unclassified' ) ;
#222 = APPROVAL_PERSON_ORGANIZATION ( #190, #188, #153 ) ;
#223 = PERSON_AND_ORGANIZATION ( #181, #19 ) ;
#224 = PRODUCT_RELATED_PRODUCT_CATEGORY ( 'detail', '', ( #9 ) ) ;
#225 = APPLICATION_PROTOCOL_DEFINITION ( 'international standard', 'config_control_design', 1994, #138 ) ;
#226 = DIRECTION ( 'NONE',  ( -4.333342374871280669E-31, -1.000000000000000000, -1.219727444046192488E-16 ) ) ;
#227 = DIRECTION ( 'NONE',  ( 0.0000000000000000000, 0.0000000000000000000, 1.000000000000000000 ) ) ;
#228 = DIRECTION ( 'NONE',  ( -3.491481338843133355E-15, 1.224646799147353207E-16, -1.000000000000000000 ) ) ;
#229 = PERSON_AND_ORGANIZATION ( #181, #19 ) ;
#230 = AXIS2_PLACEMENT_3D ( 'NONE', #43, #53, #113 ) ;
#231 = EDGE_LOOP ( 'NONE', ( #83 ) ) ;
#232 = EDGE_LOOP ( 'NONE', ( #25 ) ) ;
#233 = CC_DESIGN_PERSON_AND_ORGANIZATION_ASSIGNMENT ( #229, #97, ( #52 ) ) ;
#234 = CARTESIAN_POINT ( 'NONE',  ( 1.979669919124056423E-13, -6.943747351165492840E-15, 56.70000000000000284 ) ) ;
#235 = CIRCLE ( 'NONE', #64, 1.499999999999993339 ) ;
#236 = VERTEX_POINT ( 'NONE', #73 ) ;
#237 = CARTESIAN_POINT ( 'NONE',  ( 3.199485097688210482E-14, 3.000000000000000888, 9.163689526544418484 ) ) ;
#238 = TOROIDAL_SURFACE ( 'NONE', #106, 9.499999999999991118, 8.000000000000000000 ) ;
#239 = CC_DESIGN_DATE_AND_TIME_ASSIGNMENT ( #149, #120, ( #52 ) ) ;
#240 = DIRECTION ( 'NONE',  ( -3.491481338843133355E-15, 1.224646799147353207E-16, -1.000000000000000000 ) ) ;
#241 = CIRCLE ( 'NONE', #2, 3.000000000000001332 ) ;
#242 =( LENGTH_UNIT ( ) NAMED_UNIT ( * ) SI_UNIT ( .MILLI., .METRE. ) );
#243 = EDGE_CURVE ( 'NONE', #147, #147, #155, .T. ) ;
ENDSEC;
END-ISO-10303-21;
