ISO-10303-21;
HEADER;
FILE_DESCRIPTION (( 'STEP AP203' ),
    '1' );
FILE_NAME ('51705.step',
    '2021-11-17T09:31:54',
    ( '' ),
    ( '' ),
    'SwSTEP 2.0',
    'SolidWorks 2019',
    '' );
FILE_SCHEMA (( 'CONFIG_CONTROL_DESIGN' ));
ENDSEC;

DATA;
#1 = APPROVAL_DATE_TIME ( #151, #50 ) ;
#2 = PRODUCT_DEFINITION_SHAPE ( 'NONE', 'NONE',  #140 ) ;
#3 = APPROVAL_ROLE ( '' ) ;
#4 = LOCAL_TIME ( 10, 31, 54.00000000000000000, #113 ) ;
#5 = CALENDAR_DATE ( 2021, 17, 11 ) ;
#6 = CARTESIAN_POINT ( 'NONE',  ( 1.745740669421566678E-13, -6.123233995736766085E-15, 50.00000000000000000 ) ) ;
#7 = MECHANICAL_CONTEXT ( 'NONE', #128, 'mechanical' ) ;
#8 = EDGE_LOOP ( 'NONE', ( #24 ) ) ;
#9 = CARTESIAN_POINT ( 'NONE',  ( 1.047444401652939691E-14, -3.639363356086857376E-16, 2.999999999999999112 ) ) ;
#10 = DIRECTION ( 'NONE',  ( -4.275831445896958607E-31, -1.000000000000000000, -1.224646799147353207E-16 ) ) ;
#11 = CARTESIAN_POINT ( 'NONE',  ( 1.047444401652939691E-14, -0.9999999999999947820, 2.999999999999999112 ) ) ;
#12 = CLOSED_SHELL ( 'NONE', ( #233, #94, #90, #190, #87 ) ) ;
#13 = PLANE ( 'NONE',  #126 ) ;
#14 = VERTEX_POINT ( 'NONE', #11 ) ;
#15 = LOCAL_TIME ( 10, 31, 54.00000000000000000, #192 ) ;
#16 = CARTESIAN_POINT ( 'NONE',  ( -4.080138386271046771E-31, -1.575387709114207998E-32, -1.168598079239042680E-16 ) ) ;
#17 = PERSON_AND_ORGANIZATION ( #183, #46 ) ;
#18 = CC_DESIGN_DATE_AND_TIME_ASSIGNMENT ( #60, #230, ( #177 ) ) ;
#19 = DATE_AND_TIME ( #43, #201 ) ;
#20 = PRODUCT ( '51705', '51705', '', ( #7 ) ) ;
#21 = AXIS2_PLACEMENT_3D ( 'NONE', #9, #80, #27 ) ;
#22 = EDGE_LOOP ( 'NONE', ( #63 ) ) ;
#23 = PERSON_AND_ORGANIZATION ( #183, #46 ) ;
#24 = ORIENTED_EDGE ( 'NONE', *, *, #59, .T. ) ;
#25 = DIRECTION ( 'NONE',  ( 3.491481338843133355E-15, -1.224646799147353207E-16, 1.000000000000000000 ) ) ;
#26 = ORIENTED_EDGE ( 'NONE', *, *, #202, .F. ) ;
#27 = DIRECTION ( 'NONE',  ( 0.0000000000000000000, -1.000000000000000000, 0.0000000000000000000 ) ) ;
#28 = DIRECTION ( 'NONE',  ( 4.275831445896958607E-31, 1.000000000000000000, 1.224646799147353207E-16 ) ) ;
#29 = CIRCLE ( 'NONE', #64, 1.700000000000009726 ) ;
#30 = AXIS2_PLACEMENT_3D ( 'NONE', #16, #106, #86 ) ;
#31 = EDGE_CURVE ( 'NONE', #14, #14, #136, .T. ) ;
#32 = DIRECTION ( 'NONE',  ( 0.0000000000000000000, 1.000000000000000000, 0.0000000000000000000 ) ) ;
#33 = AXIS2_PLACEMENT_3D ( 'NONE', #67, #141, #240 ) ;
#34 =( LENGTH_UNIT ( ) NAMED_UNIT ( * ) SI_UNIT ( .MILLI., .METRE. ) );
#35 = CYLINDRICAL_SURFACE ( 'NONE', #122, 1.999999999999998668 ) ;
#36 = PLANE ( 'NONE',  #181 ) ;
#37 = PERSON_AND_ORGANIZATION ( #183, #46 ) ;
#38 = COORDINATED_UNIVERSAL_TIME_OFFSET ( 1, 0, .AHEAD. ) ;
#39 = AXIS2_PLACEMENT_3D ( 'NONE', #147, #125, #204 ) ;
#40 = CALENDAR_DATE ( 2021, 17, 11 ) ;
#41 = ORIENTED_EDGE ( 'NONE', *, *, #31, .T. ) ;
#42 = ADVANCED_FACE ( 'NONE', ( #47, #194 ), #238, .T. ) ;
#43 = CALENDAR_DATE ( 2021, 17, 11 ) ;
#44 = DIRECTION ( 'NONE',  ( 4.275831445896958607E-31, 1.000000000000000000, 1.224646799147353207E-16 ) ) ;
#45 = ORIENTED_EDGE ( 'NONE', *, *, #104, .F. ) ;
#46 = ORGANIZATION ( 'UNSPECIFIED', 'UNSPECIFIED', '' ) ;
#47 = FACE_BOUND ( 'NONE', #22, .T. ) ;
#48 = CARTESIAN_POINT ( 'NONE',  ( 1.735266225405038224E-13, -6.086494591762348381E-15, 49.70000000000002416 ) ) ;
#49 = CARTESIAN_POINT ( 'NONE',  ( 1.735266225405038224E-13, 1.999999999999991340, 49.70000000000002416 ) ) ;
#50 = APPROVAL ( #65, 'UNSPECIFIED' ) ;
#51 = CARTESIAN_POINT ( 'NONE',  ( 1.047444401652939691E-14, -0.9999999999999947820, 2.999999999999999112 ) ) ;
#52 = PRODUCT_DEFINITION_FORMATION_WITH_SPECIFIED_SOURCE ( 'ANY', '', #20, .NOT_KNOWN. ) ;
#53 = CARTESIAN_POINT ( 'NONE',  ( 1.047444401652939691E-14, -3.639363356086857376E-16, 2.999999999999999112 ) ) ;
#54 = FACE_OUTER_BOUND ( 'NONE', #137, .T. ) ;
#55 = DIRECTION ( 'NONE',  ( 0.0000000000000000000, 0.0000000000000000000, 1.000000000000000000 ) ) ;
#56 = LOCAL_TIME ( 10, 31, 54.00000000000000000, #169 ) ;
#57 = AXIS2_PLACEMENT_3D ( 'NONE', #224, #55, #206 ) ;
#58 = PERSON_AND_ORGANIZATION_ROLE ( 'design_supplier' ) ;
#59 = EDGE_CURVE ( 'NONE', #70, #70, #29, .T. ) ;
#60 = DATE_AND_TIME ( #5, #171 ) ;
#61 = EDGE_LOOP ( 'NONE', ( #105 ) ) ;
#62 = APPROVAL_ROLE ( '' ) ;
#63 = ORIENTED_EDGE ( 'NONE', *, *, #104, .T. ) ;
#64 = AXIS2_PLACEMENT_3D ( 'NONE', #6, #175, #78 ) ;
#65 = APPROVAL_STATUS ( 'not_yet_approved' ) ;
#66 = ORIENTED_EDGE ( 'NONE', *, *, #31, .F. ) ;
#67 = CARTESIAN_POINT ( 'NONE',  ( 1.735266225405038224E-13, -6.086494591762348381E-15, 49.70000000000002416 ) ) ;
#68 = APPROVAL_PERSON_ORGANIZATION ( #133, #116, #212 ) ;
#69 = DIRECTION ( 'NONE',  ( 3.491481338843133355E-15, -1.224646799147353207E-16, 1.000000000000000000 ) ) ;
#70 = VERTEX_POINT ( 'NONE', #149 ) ;
#71 = CIRCLE ( 'NONE', #30, 0.9499999999999997335 ) ;
#72 = CYLINDRICAL_SURFACE ( 'NONE', #127, 0.9999999999999941158 ) ;
#73 = CARTESIAN_POINT ( 'NONE',  ( -8.160276772542093542E-31, -0.9499999999999997335, -2.337196158478085361E-16 ) ) ;
#74 = AXIS2_PLACEMENT_3D ( 'NONE', #48, #159, #129 ) ;
#75 = DATE_TIME_ROLE ( 'creation_date' ) ;
#76 = CC_DESIGN_APPROVAL ( #112, ( #140 ) ) ;
#77 = CALENDAR_DATE ( 2021, 17, 11 ) ;
#78 = DIRECTION ( 'NONE',  ( 0.0000000000000000000, 1.000000000000000000, 0.0000000000000000000 ) ) ;
#79 =( NAMED_UNIT ( * ) SI_UNIT ( $, .STERADIAN. ) SOLID_ANGLE_UNIT ( ) );
#80 = DIRECTION ( 'NONE',  ( 3.491481338843133355E-15, -1.213121118695619454E-16, 1.000000000000000000 ) ) ;
#81 = ORIENTED_EDGE ( 'NONE', *, *, #130, .F. ) ;
#82 = ORIENTED_EDGE ( 'NONE', *, *, #174, .T. ) ;
#83 = CC_DESIGN_DATE_AND_TIME_ASSIGNMENT ( #117, #75, ( #140 ) ) ;
#84 = PLANE ( 'NONE',  #88 ) ;
#85 = CIRCLE ( 'NONE', #235, 0.9999999999999943379 ) ;
#86 = DIRECTION ( 'NONE',  ( -4.294882511864260911E-31, -1.000000000000000000, -1.230103241304255752E-16 ) ) ;
#87 = ADVANCED_FACE ( 'NONE', ( #196 ), #84, .F. ) ;
#88 = AXIS2_PLACEMENT_3D ( 'NONE', #176, #25, #10 ) ;
#89 = CARTESIAN_POINT ( 'NONE',  ( 2.399689309546284714E-14, -4.698397889640653909E-16, 6.872983346207422350 ) ) ;
#90 = ADVANCED_FACE ( 'NONE', ( #134 ), #232, .F. ) ;
#91 = DIRECTION ( 'NONE',  ( -4.333342374871280669E-31, -1.000000000000000000, -1.219727444046192488E-16 ) ) ;
#92 = DIRECTION ( 'NONE',  ( 3.491481338843133355E-15, -1.230103241304255752E-16, 1.000000000000000000 ) ) ;
#93 = COORDINATED_UNIVERSAL_TIME_OFFSET ( 1, 0, .AHEAD. ) ;
#94 = ADVANCED_FACE ( 'NONE', ( #120, #100 ), #184, .T. ) ;
#95 = CC_DESIGN_SECURITY_CLASSIFICATION ( #177, ( #52 ) ) ;
#96 = APPROVAL_DATE_TIME ( #19, #116 ) ;
#97 = ORIENTED_EDGE ( 'NONE', *, *, #59, .F. ) ;
#98 = PERSON_AND_ORGANIZATION ( #183, #46 ) ;
#99 = DIRECTION ( 'NONE',  ( -4.333342374871280669E-31, -1.000000000000000000, -1.219727444046192488E-16 ) ) ;
#100 = FACE_OUTER_BOUND ( 'NONE', #217, .T. ) ;
#101 = CLOSED_SHELL ( 'NONE', ( #146, #243, #42, #182 ) ) ;
#102 = CIRCLE ( 'NONE', #164, 1.999999999999998668 ) ;
#103 = ORIENTED_EDGE ( 'NONE', *, *, #207, .F. ) ;
#104 = EDGE_CURVE ( 'NONE', #144, #144, #71, .T. ) ;
#105 = ORIENTED_EDGE ( 'NONE', *, *, #130, .T. ) ;
#106 = DIRECTION ( 'NONE',  ( 3.491481338843133355E-15, -1.230103241304255752E-16, 1.000000000000000000 ) ) ;
#107 = MANIFOLD_SOLID_BREP ( 'Corps-Déplacer/Copier1[2]', #101 ) ;
#108 = VERTEX_POINT ( 'NONE', #165 ) ;
#109 = CC_DESIGN_PERSON_AND_ORGANIZATION_ASSIGNMENT ( #98, #58, ( #52 ) ) ;
#110 = CARTESIAN_POINT ( 'NONE',  ( 0.0000000000000000000, 0.0000000000000000000, 0.0000000000000000000 ) ) ;
#111 = VERTEX_POINT ( 'NONE', #49 ) ;
#112 = APPROVAL ( #195, 'UNSPECIFIED' ) ;
#113 = COORDINATED_UNIVERSAL_TIME_OFFSET ( 1, 0, .AHEAD. ) ;
#114 = EDGE_LOOP ( 'NONE', ( #82 ) ) ;
#115 = CC_DESIGN_APPROVAL ( #116, ( #177 ) ) ;
#116 = APPROVAL ( #209, 'UNSPECIFIED' ) ;
#117 = DATE_AND_TIME ( #40, #56 ) ;
#118 = EDGE_LOOP ( 'NONE', ( #41 ) ) ;
#119 = CALENDAR_DATE ( 2021, 17, 11 ) ;
#120 = FACE_BOUND ( 'NONE', #8, .T. ) ;
#121 = EDGE_LOOP ( 'NONE', ( #66 ) ) ;
#122 = AXIS2_PLACEMENT_3D ( 'NONE', #110, #236, #187 ) ;
#123 = DESIGN_CONTEXT ( 'detailed design', #210, 'design' ) ;
#124 = FACE_OUTER_BOUND ( 'NONE', #234, .T. ) ;
#125 = DIRECTION ( 'NONE',  ( 3.491481338843133355E-15, -1.213121118695619454E-16, 1.000000000000000000 ) ) ;
#126 = AXIS2_PLACEMENT_3D ( 'NONE', #131, #161, #28 ) ;
#127 = AXIS2_PLACEMENT_3D ( 'NONE', #242, #200, #148 ) ;
#128 = APPLICATION_CONTEXT ( 'configuration controlled 3d designs of mechanical parts and assemblies' ) ;
#129 = DIRECTION ( 'NONE',  ( 0.0000000000000000000, 1.000000000000000000, 0.0000000000000000000 ) ) ;
#130 = EDGE_CURVE ( 'NONE', #219, #219, #199, .T. ) ;
#131 = CARTESIAN_POINT ( 'NONE',  ( -4.275831445896957731E-31, 1.499759782661857608E-32, -1.224646799147353207E-16 ) ) ;
#132 = SECURITY_CLASSIFICATION_LEVEL ( 'unclassified' ) ;
#133 = PERSON_AND_ORGANIZATION ( #183, #46 ) ;
#134 = FACE_OUTER_BOUND ( 'NONE', #213, .T. ) ;
#135 = DATE_AND_TIME ( #77, #15 ) ;
#136 = CIRCLE ( 'NONE', #21, 0.9999999999999943379 ) ;
#137 = EDGE_LOOP ( 'NONE', ( #26 ) ) ;
#138 = PERSON_AND_ORGANIZATION_ROLE ( 'creator' ) ;
#139 = DIRECTION ( 'NONE',  ( -3.491481338843133355E-15, 1.224646799147353207E-16, -1.000000000000000000 ) ) ;
#140 = PRODUCT_DEFINITION ( 'UNKNOWN', '', #52, #123 ) ;
#141 = DIRECTION ( 'NONE',  ( -3.491481338843133355E-15, 1.224646799147353207E-16, -1.000000000000000000 ) ) ;
#142 = ORIENTED_EDGE ( 'NONE', *, *, #202, .T. ) ;
#143 = CC_DESIGN_APPROVAL ( #50, ( #52 ) ) ;
#144 = VERTEX_POINT ( 'NONE', #73 ) ;
#145 = FACE_OUTER_BOUND ( 'NONE', #114, .T. ) ;
#146 = ADVANCED_FACE ( 'NONE', ( #222, #188 ), #72, .T. ) ;
#147 = CARTESIAN_POINT ( 'NONE',  ( 1.047444401652939375E-14, 0.0000000000000000000, 2.999999999999998224 ) ) ;
#148 = DIRECTION ( 'NONE',  ( -4.235589747682260442E-31, -1.000000000000000000, -1.213121118695619454E-16 ) ) ;
#149 = CARTESIAN_POINT ( 'NONE',  ( 1.745740669421566678E-13, 1.700000000000003508, 50.00000000000000000 ) ) ;
#150 = PERSON_AND_ORGANIZATION_ROLE ( 'design_owner' ) ;
#151 = DATE_AND_TIME ( #119, #4 ) ;
#152 =( GEOMETRIC_REPRESENTATION_CONTEXT ( 3 ) GLOBAL_UNCERTAINTY_ASSIGNED_CONTEXT ( ( #215 ) ) GLOBAL_UNIT_ASSIGNED_CONTEXT ( ( #34, #189, #79 ) ) REPRESENTATION_CONTEXT ( 'NONE', 'WORKASPACE' ) );
#153 = PERSON_AND_ORGANIZATION ( #183, #46 ) ;
#154 = EDGE_LOOP ( 'NONE', ( #81 ) ) ;
#155 = PERSON_AND_ORGANIZATION_ROLE ( 'classification_officer' ) ;
#156 = ORIENTED_EDGE ( 'NONE', *, *, #207, .T. ) ;
#157 = CC_DESIGN_PERSON_AND_ORGANIZATION_ASSIGNMENT ( #17, #150, ( #20 ) ) ;
#158 = EDGE_LOOP ( 'NONE', ( #142 ) ) ;
#159 = DIRECTION ( 'NONE',  ( -3.491481338843133355E-15, 1.224646799147353207E-16, -1.000000000000000000 ) ) ;
#160 = CIRCLE ( 'NONE', #74, 1.999999999999997335 ) ;
#161 = DIRECTION ( 'NONE',  ( -3.491481338843133355E-15, 1.224646799147353207E-16, -1.000000000000000000 ) ) ;
#162 = CC_DESIGN_PERSON_AND_ORGANIZATION_ASSIGNMENT ( #226, #138, ( #52 ) ) ;
#163 = APPROVAL_PERSON_ORGANIZATION ( #193, #112, #62 ) ;
#164 = AXIS2_PLACEMENT_3D ( 'NONE', #89, #168, #32 ) ;
#165 = CARTESIAN_POINT ( 'NONE',  ( 2.399689309546284714E-14, 1.999999999999998224, 6.872983346207422350 ) ) ;
#166 = CARTESIAN_POINT ( 'NONE',  ( 1.745740669421560268E-16, -1.000000000000000000, 0.04999999999999982236 ) ) ;
#167 = AXIS2_PLACEMENT_3D ( 'NONE', #173, #179, #99 ) ;
#168 = DIRECTION ( 'NONE',  ( 3.491481338843133355E-15, -1.213121118695619454E-16, 1.000000000000000000 ) ) ;
#169 = COORDINATED_UNIVERSAL_TIME_OFFSET ( 1, 0, .AHEAD. ) ;
#170 = APPLICATION_PROTOCOL_DEFINITION ( 'international standard', 'config_control_design', 1994, #210 ) ;
#171 = LOCAL_TIME ( 10, 31, 54.00000000000000000, #93 ) ;
#172 = SHAPE_DEFINITION_REPRESENTATION ( #2, #208 ) ;
#173 = CARTESIAN_POINT ( 'NONE',  ( 1.745740669421564705E-16, -6.150516206521300944E-18, 0.04999999999999994033 ) ) ;
#174 = EDGE_CURVE ( 'NONE', #111, #111, #160, .T. ) ;
#175 = DIRECTION ( 'NONE',  ( -3.491481338843133355E-15, 1.224646799147353207E-16, -1.000000000000000000 ) ) ;
#176 = CARTESIAN_POINT ( 'NONE',  ( 1.047444401652939691E-14, -1.301042606982604926E-15, 2.999999999999999112 ) ) ;
#177 = SECURITY_CLASSIFICATION ( '', '', #132 ) ;
#178 = EDGE_LOOP ( 'NONE', ( #45 ) ) ;
#179 = DIRECTION ( 'NONE',  ( 3.491481338843133355E-15, -1.230103241304255752E-16, 1.000000000000000000 ) ) ;
#180 = FACE_OUTER_BOUND ( 'NONE', #118, .T. ) ;
#181 = AXIS2_PLACEMENT_3D ( 'NONE', #241, #69, #198 ) ;
#182 = ADVANCED_FACE ( 'NONE', ( #221 ), #13, .T. ) ;
#183 = PERSON ( 'UNSPECIFIED', 'UNSPECIFIED', 'UNSPECIFIED', ('UNSPECIFIED'), ('UNSPECIFIED'), ('UNSPECIFIED') ) ;
#184 = CONICAL_SURFACE ( 'NONE', #33, 1.999999999999997335, 0.7853981633974598253 ) ;
#185 = CARTESIAN_POINT ( 'NONE',  ( 1.745740669421564705E-16, -6.150516206521300944E-18, 0.04999999999999994033 ) ) ;
#186 = MANIFOLD_SOLID_BREP ( 'Corps-Déplacer/Copier1[1]', #12 ) ;
#187 = DIRECTION ( 'NONE',  ( 4.275831445896957731E-31, 1.000000000000000000, 1.224646799147353207E-16 ) ) ;
#188 = FACE_OUTER_BOUND ( 'NONE', #61, .T. ) ;
#189 =( NAMED_UNIT ( * ) PLANE_ANGLE_UNIT ( ) SI_UNIT ( $, .RADIAN. ) );
#190 = ADVANCED_FACE ( 'NONE', ( #54, #180 ), #197, .F. ) ;
#191 = APPLICATION_PROTOCOL_DEFINITION ( 'international standard', 'config_control_design', 1994, #128 ) ;
#192 = COORDINATED_UNIVERSAL_TIME_OFFSET ( 1, 0, .AHEAD. ) ;
#193 = PERSON_AND_ORGANIZATION ( #183, #46 ) ;
#194 = FACE_OUTER_BOUND ( 'NONE', #154, .T. ) ;
#195 = APPROVAL_STATUS ( 'not_yet_approved' ) ;
#196 = FACE_OUTER_BOUND ( 'NONE', #121, .T. ) ;
#197 = TOROIDAL_SURFACE ( 'NONE', #39, 8.999999999999994671, 8.000000000000000000 ) ;
#198 = DIRECTION ( 'NONE',  ( -4.275831445896958607E-31, -1.000000000000000000, -1.224646799147353207E-16 ) ) ;
#199 = CIRCLE ( 'NONE', #205, 1.000000000000000000 ) ;
#200 = DIRECTION ( 'NONE',  ( 3.491481338843133355E-15, -1.213121118695619454E-16, 1.000000000000000000 ) ) ;
#201 = LOCAL_TIME ( 10, 31, 54.00000000000000000, #38 ) ;
#202 = EDGE_CURVE ( 'NONE', #108, #108, #102, .T. ) ;
#203 = DIRECTION ( 'NONE',  ( 3.491481338843133355E-15, -1.213121118695619454E-16, 1.000000000000000000 ) ) ;
#204 = DIRECTION ( 'NONE',  ( -4.313693554750671589E-31, -1.000000000000000000, -1.213121118695619454E-16 ) ) ;
#205 = AXIS2_PLACEMENT_3D ( 'NONE', #185, #92, #91 ) ;
#206 = DIRECTION ( 'NONE',  ( 1.000000000000000000, 0.0000000000000000000, 0.0000000000000000000 ) ) ;
#207 = EDGE_CURVE ( 'NONE', #220, #220, #85, .T. ) ;
#208 = ADVANCED_BREP_SHAPE_REPRESENTATION ( '51705', ( #186, #107, #57 ), #152 ) ;
#209 = APPROVAL_STATUS ( 'not_yet_approved' ) ;
#210 = APPLICATION_CONTEXT ( 'configuration controlled 3d designs of mechanical parts and assemblies' ) ;
#211 = PERSON_AND_ORGANIZATION_ROLE ( 'creator' ) ;
#212 = APPROVAL_ROLE ( '' ) ;
#213 = EDGE_LOOP ( 'NONE', ( #97 ) ) ;
#214 = EDGE_LOOP ( 'NONE', ( #103 ) ) ;
#215 = UNCERTAINTY_MEASURE_WITH_UNIT (LENGTH_MEASURE( 1.000000000000000082E-05 ), #34, 'distance_accuracy_value', 'NONE');
#216 = APPROVAL_PERSON_ORGANIZATION ( #23, #50, #3 ) ;
#217 = EDGE_LOOP ( 'NONE', ( #231 ) ) ;
#218 = FACE_OUTER_BOUND ( 'NONE', #158, .T. ) ;
#219 = VERTEX_POINT ( 'NONE', #166 ) ;
#220 = VERTEX_POINT ( 'NONE', #51 ) ;
#221 = FACE_OUTER_BOUND ( 'NONE', #178, .T. ) ;
#222 = FACE_OUTER_BOUND ( 'NONE', #214, .T. ) ;
#223 = CC_DESIGN_PERSON_AND_ORGANIZATION_ASSIGNMENT ( #37, #211, ( #140 ) ) ;
#224 = CARTESIAN_POINT ( 'NONE',  ( 0.0000000000000000000, 0.0000000000000000000, 0.0000000000000000000 ) ) ;
#225 = AXIS2_PLACEMENT_3D ( 'NONE', #229, #139, #44 ) ;
#226 = PERSON_AND_ORGANIZATION ( #183, #46 ) ;
#227 = PRODUCT_RELATED_PRODUCT_CATEGORY ( 'detail', '', ( #20 ) ) ;
#228 = APPROVAL_DATE_TIME ( #135, #112 ) ;
#229 = CARTESIAN_POINT ( 'NONE',  ( 1.745740669421566678E-13, 1.274795815262577325E-32, 50.00000000000000000 ) ) ;
#230 = DATE_TIME_ROLE ( 'classification_date' ) ;
#231 = ORIENTED_EDGE ( 'NONE', *, *, #174, .F. ) ;
#232 = PLANE ( 'NONE',  #225 ) ;
#233 = ADVANCED_FACE ( 'NONE', ( #145, #218 ), #35, .T. ) ;
#234 = EDGE_LOOP ( 'NONE', ( #156 ) ) ;
#235 = AXIS2_PLACEMENT_3D ( 'NONE', #53, #203, #237 ) ;
#236 = DIRECTION ( 'NONE',  ( -3.491481338843133355E-15, 1.224646799147353207E-16, -1.000000000000000000 ) ) ;
#237 = DIRECTION ( 'NONE',  ( 0.0000000000000000000, -1.000000000000000000, 0.0000000000000000000 ) ) ;
#238 = CONICAL_SURFACE ( 'NONE', #167, 1.000000000000000000, 0.7853981633974501664 ) ;
#239 = CC_DESIGN_PERSON_AND_ORGANIZATION_ASSIGNMENT ( #153, #155, ( #177 ) ) ;
#240 = DIRECTION ( 'NONE',  ( 0.0000000000000000000, 1.000000000000000000, 0.0000000000000000000 ) ) ;
#241 = CARTESIAN_POINT ( 'NONE',  ( 1.047444401652939691E-14, -1.301042606982604926E-15, 2.999999999999999112 ) ) ;
#242 = CARTESIAN_POINT ( 'NONE',  ( -6.413747168845438786E-31, 0.0000000000000000000, -1.836970198721029934E-16 ) ) ;
#243 = ADVANCED_FACE ( 'NONE', ( #124 ), #36, .T. ) ;
ENDSEC;
END-ISO-10303-21;
