ISO-10303-21;
HEADER;
FILE_DESCRIPTION (( 'STEP AP203' ),
    '1' );
FILE_NAME ('51704.step',
    '2021-11-17T09:31:53',
    ( '' ),
    ( '' ),
    'SwSTEP 2.0',
    'SolidWorks 2019',
    '' );
FILE_SCHEMA (( 'CONFIG_CONTROL_DESIGN' ));
ENDSEC;

DATA;
#1 = AXIS2_PLACEMENT_3D ( 'NONE', #91, #84, #234 ) ;
#2 = CARTESIAN_POINT ( 'NONE',  ( 6.982962677686260400E-15, -0.4999999999999904521, 1.999999999999998224 ) ) ;
#3 = SHAPE_DEFINITION_REPRESENTATION ( #119, #221 ) ;
#4 = ORIENTED_EDGE ( 'NONE', *, *, #90, .F. ) ;
#5 = CC_DESIGN_PERSON_AND_ORGANIZATION_ASSIGNMENT ( #162, #181, ( #243 ) ) ;
#6 = PERSON_AND_ORGANIZATION ( #150, #22 ) ;
#7 = PERSON_AND_ORGANIZATION ( #150, #22 ) ;
#8 = DATE_AND_TIME ( #183, #235 ) ;
#9 = ORIENTED_EDGE ( 'NONE', *, *, #90, .T. ) ;
#10 = APPROVAL_PERSON_ORGANIZATION ( #130, #186, #111 ) ;
#11 = CARTESIAN_POINT ( 'NONE',  ( -1.741978659004414169E-31, -2.399157788363937417E-32, -4.989225173924603933E-17 ) ) ;
#12 = CARTESIAN_POINT ( 'NONE',  ( 1.735266225405038224E-13, -6.086494591762348381E-15, 49.70000000000002416 ) ) ;
#13 = CARTESIAN_POINT ( 'NONE',  ( 2.326614762977426828E-14, -5.657620255690609633E-16, 6.663689526544417596 ) ) ;
#14 = DIRECTION ( 'NONE',  ( 4.275831445896958607E-31, 1.000000000000000000, 1.224646799147353207E-16 ) ) ;
#15 = DIRECTION ( 'NONE',  ( 0.0000000000000000000, 1.000000000000000000, 0.0000000000000000000 ) ) ;
#16 = VERTEX_POINT ( 'NONE', #122 ) ;
#17 = CARTESIAN_POINT ( 'NONE',  ( 6.982962677686266711E-15, 1.499759782661857060E-32, 2.000000000000000000 ) ) ;
#18 = PRODUCT_RELATED_PRODUCT_CATEGORY ( 'detail', '', ( #190 ) ) ;
#19 = FACE_OUTER_BOUND ( 'NONE', #71, .T. ) ;
#20 = MANIFOLD_SOLID_BREP ( 'Corps-Déplacer/Copier1[2]', #70 ) ;
#21 = CIRCLE ( 'NONE', #163, 1.999999999999997335 ) ;
#22 = ORGANIZATION ( 'UNSPECIFIED', 'UNSPECIFIED', '' ) ;
#23 = APPROVAL_DATE_TIME ( #147, #186 ) ;
#24 = ADVANCED_FACE ( 'NONE', ( #109, #206 ), #222, .T. ) ;
#25 = DATE_TIME_ROLE ( 'classification_date' ) ;
#26 = COORDINATED_UNIVERSAL_TIME_OFFSET ( 1, 0, .AHEAD. ) ;
#27 = EDGE_LOOP ( 'NONE', ( #149 ) ) ;
#28 = MANIFOLD_SOLID_BREP ( 'Corps-Déplacer/Copier1[1]', #143 ) ;
#29 = DATE_AND_TIME ( #161, #69 ) ;
#30 = EDGE_LOOP ( 'NONE', ( #112 ) ) ;
#31 = CARTESIAN_POINT ( 'NONE',  ( 6.982962677686260400E-15, -2.426242237391236936E-16, 1.999999999999998224 ) ) ;
#32 = CARTESIAN_POINT ( 'NONE',  ( 1.735266225405038224E-13, -6.086494591762348381E-15, 49.70000000000002416 ) ) ;
#33 = CC_DESIGN_DATE_AND_TIME_ASSIGNMENT ( #47, #211, ( #225 ) ) ;
#34 = CARTESIAN_POINT ( 'NONE',  ( -6.413747168845438786E-31, 0.0000000000000000000, -1.836970198721029934E-16 ) ) ;
#35 = CARTESIAN_POINT ( 'NONE',  ( 6.982962677686266711E-15, 1.499759782661857060E-32, 2.000000000000000000 ) ) ;
#36 = LOCAL_TIME ( 10, 31, 53.00000000000000000, #128 ) ;
#37 = ADVANCED_FACE ( 'NONE', ( #116, #220 ), #138, .T. ) ;
#38 = DIRECTION ( 'NONE',  ( -3.491481338843133355E-15, 1.224646799147353207E-16, -1.000000000000000000 ) ) ;
#39 =( LENGTH_UNIT ( ) NAMED_UNIT ( * ) SI_UNIT ( .MILLI., .METRE. ) );
#40 =( GEOMETRIC_REPRESENTATION_CONTEXT ( 3 ) GLOBAL_UNCERTAINTY_ASSIGNED_CONTEXT ( ( #188 ) ) GLOBAL_UNIT_ASSIGNED_CONTEXT ( ( #39, #227, #80 ) ) REPRESENTATION_CONTEXT ( 'NONE', 'WORKASPACE' ) );
#41 = ADVANCED_FACE ( 'NONE', ( #223 ), #155, .T. ) ;
#42 = APPROVAL_DATE_TIME ( #8, #231 ) ;
#43 = CC_DESIGN_PERSON_AND_ORGANIZATION_ASSIGNMENT ( #7, #125, ( #190 ) ) ;
#44 = CONICAL_SURFACE ( 'NONE', #110, 1.999999999999997335, 0.7853981633974598253 ) ;
#45 = APPLICATION_PROTOCOL_DEFINITION ( 'international standard', 'config_control_design', 1994, #103 ) ;
#46 = PERSON_AND_ORGANIZATION ( #150, #22 ) ;
#47 = DATE_AND_TIME ( #216, #224 ) ;
#48 = APPROVAL_PERSON_ORGANIZATION ( #46, #231, #233 ) ;
#49 = PERSON_AND_ORGANIZATION ( #150, #22 ) ;
#50 = EDGE_LOOP ( 'NONE', ( #201 ) ) ;
#51 = APPLICATION_CONTEXT ( 'configuration controlled 3d designs of mechanical parts and assemblies' ) ;
#52 = DIRECTION ( 'NONE',  ( 3.491481338843133355E-15, -1.213121118695619454E-16, 1.000000000000000000 ) ) ;
#53 = EDGE_CURVE ( 'NONE', #82, #82, #62, .T. ) ;
#54 = DIRECTION ( 'NONE',  ( -4.316060336783047366E-31, -1.000000000000000000, -1.213121118695619454E-16 ) ) ;
#55 = FACE_OUTER_BOUND ( 'NONE', #184, .T. ) ;
#56 = DIRECTION ( 'NONE',  ( -3.491481338843133355E-15, 1.224646799147353207E-16, -1.000000000000000000 ) ) ;
#57 = CONICAL_SURFACE ( 'NONE', #87, 0.5000000000000000000, 0.7853981633974496113 ) ;
#58 = CARTESIAN_POINT ( 'NONE',  ( 2.326614762977426828E-14, 1.999999999999998224, 6.663689526544417596 ) ) ;
#59 = CARTESIAN_POINT ( 'NONE',  ( -3.674675789343332893E-31, -0.4500000000000002887, -1.052468975979375753E-16 ) ) ;
#60 = CIRCLE ( 'NONE', #94, 0.5000000000000000000 ) ;
#61 = APPROVAL_PERSON_ORGANIZATION ( #141, #241, #86 ) ;
#62 = CIRCLE ( 'NONE', #210, 1.700000000000009726 ) ;
#63 = DATE_AND_TIME ( #230, #174 ) ;
#64 = EDGE_LOOP ( 'NONE', ( #180 ) ) ;
#65 = PERSON_AND_ORGANIZATION_ROLE ( 'creator' ) ;
#66 = EDGE_LOOP ( 'NONE', ( #85 ) ) ;
#67 = ADVANCED_FACE ( 'NONE', ( #187 ), #151, .F. ) ;
#68 = APPLICATION_PROTOCOL_DEFINITION ( 'international standard', 'config_control_design', 1994, #51 ) ;
#69 = LOCAL_TIME ( 10, 31, 53.00000000000000000, #89 ) ;
#70 = CLOSED_SHELL ( 'NONE', ( #24, #209, #194, #41 ) ) ;
#71 = EDGE_LOOP ( 'NONE', ( #107 ) ) ;
#72 = DIRECTION ( 'NONE',  ( 3.491481338843133355E-15, -1.230103241304255752E-16, 1.000000000000000000 ) ) ;
#73 = CARTESIAN_POINT ( 'NONE',  ( -4.275831445896957731E-31, 1.499759782661857608E-32, -1.224646799147353207E-16 ) ) ;
#74 = AXIS2_PLACEMENT_3D ( 'NONE', #31, #95, #170 ) ;
#75 = DIRECTION ( 'NONE',  ( -3.491481338843133355E-15, 1.224646799147353207E-16, -1.000000000000000000 ) ) ;
#76 = FACE_OUTER_BOUND ( 'NONE', #66, .T. ) ;
#77 = DIRECTION ( 'NONE',  ( 3.491481338843133355E-15, -1.230103241304255752E-16, 1.000000000000000000 ) ) ;
#78 = AXIS2_PLACEMENT_3D ( 'NONE', #17, #140, #173 ) ;
#79 = CC_DESIGN_PERSON_AND_ORGANIZATION_ASSIGNMENT ( #6, #196, ( #243 ) ) ;
#80 =( NAMED_UNIT ( * ) SI_UNIT ( $, .STERADIAN. ) SOLID_ANGLE_UNIT ( ) );
#81 = AXIS2_PLACEMENT_3D ( 'NONE', #11, #72, #218 ) ;
#82 = VERTEX_POINT ( 'NONE', #175 ) ;
#83 = CARTESIAN_POINT ( 'NONE',  ( 1.735266225405038224E-13, 1.999999999999991340, 49.70000000000002416 ) ) ;
#84 = DIRECTION ( 'NONE',  ( 0.0000000000000000000, 0.0000000000000000000, 1.000000000000000000 ) ) ;
#85 = ORIENTED_EDGE ( 'NONE', *, *, #132, .F. ) ;
#86 = APPROVAL_ROLE ( '' ) ;
#87 = AXIS2_PLACEMENT_3D ( 'NONE', #237, #205, #171 ) ;
#88 = EDGE_LOOP ( 'NONE', ( #197 ) ) ;
#89 = COORDINATED_UNIVERSAL_TIME_OFFSET ( 1, 0, .AHEAD. ) ;
#90 = EDGE_CURVE ( 'NONE', #160, #160, #179, .T. ) ;
#91 = CARTESIAN_POINT ( 'NONE',  ( 0.0000000000000000000, 0.0000000000000000000, 0.0000000000000000000 ) ) ;
#92 = CALENDAR_DATE ( 2021, 17, 11 ) ;
#93 = AXIS2_PLACEMENT_3D ( 'NONE', #13, #99, #169 ) ;
#94 = AXIS2_PLACEMENT_3D ( 'NONE', #240, #77, #185 ) ;
#95 = DIRECTION ( 'NONE',  ( 3.491481338843133355E-15, -1.213121118695619454E-16, 1.000000000000000000 ) ) ;
#96 = FACE_OUTER_BOUND ( 'NONE', #64, .T. ) ;
#97 = DIRECTION ( 'NONE',  ( -3.491481338843133355E-15, 1.224646799147353207E-16, -1.000000000000000000 ) ) ;
#98 = DIRECTION ( 'NONE',  ( 0.0000000000000000000, 1.000000000000000000, 0.0000000000000000000 ) ) ;
#99 = DIRECTION ( 'NONE',  ( 3.491481338843133355E-15, -1.213121118695619454E-16, 1.000000000000000000 ) ) ;
#100 = CARTESIAN_POINT ( 'NONE',  ( 1.745740669421547696E-16, -0.5000000000000000000, 0.04999999999999945460 ) ) ;
#101 = ADVANCED_FACE ( 'NONE', ( #76, #55 ), #102, .F. ) ;
#102 = TOROIDAL_SURFACE ( 'NONE', #139, 8.499999999999989342, 8.000000000000000000 ) ;
#103 = APPLICATION_CONTEXT ( 'configuration controlled 3d designs of mechanical parts and assemblies' ) ;
#104 = AXIS2_PLACEMENT_3D ( 'NONE', #35, #133, #154 ) ;
#105 = SECURITY_CLASSIFICATION_LEVEL ( 'unclassified' ) ;
#106 = ORIENTED_EDGE ( 'NONE', *, *, #132, .T. ) ;
#107 = ORIENTED_EDGE ( 'NONE', *, *, #156, .T. ) ;
#108 = APPROVAL_DATE_TIME ( #63, #241 ) ;
#109 = FACE_OUTER_BOUND ( 'NONE', #213, .T. ) ;
#110 = AXIS2_PLACEMENT_3D ( 'NONE', #32, #38, #15 ) ;
#111 = APPROVAL_ROLE ( '' ) ;
#112 = ORIENTED_EDGE ( 'NONE', *, *, #182, .F. ) ;
#113 = ADVANCED_FACE ( 'NONE', ( #96 ), #202, .F. ) ;
#114 = CARTESIAN_POINT ( 'NONE',  ( 0.0000000000000000000, 0.0000000000000000000, 0.0000000000000000000 ) ) ;
#115 = CC_DESIGN_APPROVAL ( #241, ( #225 ) ) ;
#116 = FACE_OUTER_BOUND ( 'NONE', #232, .T. ) ;
#117 = EDGE_CURVE ( 'NONE', #242, #242, #21, .T. ) ;
#118 = DIRECTION ( 'NONE',  ( 4.275831445896957731E-31, 1.000000000000000000, 1.224646799147353207E-16 ) ) ;
#119 = PRODUCT_DEFINITION_SHAPE ( 'NONE', 'NONE',  #225 ) ;
#120 = CARTESIAN_POINT ( 'NONE',  ( 1.745740669421566678E-13, -6.123233995736766085E-15, 50.00000000000000000 ) ) ;
#121 = VERTEX_POINT ( 'NONE', #58 ) ;
#122 = CARTESIAN_POINT ( 'NONE',  ( 6.982962677686260400E-15, -0.4999999999999904521, 1.999999999999998224 ) ) ;
#123 = CC_DESIGN_SECURITY_CLASSIFICATION ( #164, ( #243 ) ) ;
#124 = AXIS2_PLACEMENT_3D ( 'NONE', #236, #97, #14 ) ;
#125 = PERSON_AND_ORGANIZATION_ROLE ( 'design_owner' ) ;
#126 = AXIS2_PLACEMENT_3D ( 'NONE', #165, #191, #136 ) ;
#127 = MECHANICAL_CONTEXT ( 'NONE', #51, 'mechanical' ) ;
#128 = COORDINATED_UNIVERSAL_TIME_OFFSET ( 1, 0, .AHEAD. ) ;
#129 = ORIENTED_EDGE ( 'NONE', *, *, #117, .T. ) ;
#130 = PERSON_AND_ORGANIZATION ( #150, #22 ) ;
#131 = ORIENTED_EDGE ( 'NONE', *, *, #176, .F. ) ;
#132 = EDGE_CURVE ( 'NONE', #121, #121, #229, .T. ) ;
#133 = DIRECTION ( 'NONE',  ( 3.491481338843133355E-15, -1.224646799147353207E-16, 1.000000000000000000 ) ) ;
#134 = FACE_BOUND ( 'NONE', #50, .T. ) ;
#135 = DESIGN_CONTEXT ( 'detailed design', #103, 'design' ) ;
#136 = DIRECTION ( 'NONE',  ( 0.0000000000000000000, -1.000000000000000000, 0.0000000000000000000 ) ) ;
#137 = DIRECTION ( 'NONE',  ( 3.491481338843133355E-15, -1.213121118695619454E-16, 1.000000000000000000 ) ) ;
#138 = CYLINDRICAL_SURFACE ( 'NONE', #168, 1.999999999999998668 ) ;
#139 = AXIS2_PLACEMENT_3D ( 'NONE', #157, #52, #54 ) ;
#140 = DIRECTION ( 'NONE',  ( 3.491481338843133355E-15, -1.224646799147353207E-16, 1.000000000000000000 ) ) ;
#141 = PERSON_AND_ORGANIZATION ( #150, #22 ) ;
#142 = CC_DESIGN_DATE_AND_TIME_ASSIGNMENT ( #29, #25, ( #164 ) ) ;
#143 = CLOSED_SHELL ( 'NONE', ( #37, #152, #113, #101, #67 ) ) ;
#144 = EDGE_LOOP ( 'NONE', ( #106 ) ) ;
#145 = APPROVAL_STATUS ( 'not_yet_approved' ) ;
#146 = EDGE_LOOP ( 'NONE', ( #195 ) ) ;
#147 = DATE_AND_TIME ( #92, #36 ) ;
#148 = APPROVAL_STATUS ( 'not_yet_approved' ) ;
#149 = ORIENTED_EDGE ( 'NONE', *, *, #53, .T. ) ;
#150 = PERSON ( 'UNSPECIFIED', 'UNSPECIFIED', 'UNSPECIFIED', ('UNSPECIFIED'), ('UNSPECIFIED'), ('UNSPECIFIED') ) ;
#151 = PLANE ( 'NONE',  #104 ) ;
#152 = ADVANCED_FACE ( 'NONE', ( #192, #207 ), #44, .T. ) ;
#153 = CIRCLE ( 'NONE', #74, 0.4999999999999902300 ) ;
#154 = DIRECTION ( 'NONE',  ( -4.275831445896958607E-31, -1.000000000000000000, -1.224646799147353207E-16 ) ) ;
#155 = PLANE ( 'NONE',  #172 ) ;
#156 = EDGE_CURVE ( 'NONE', #16, #16, #153, .T. ) ;
#157 = CARTESIAN_POINT ( 'NONE',  ( 6.982962677686263555E-15, 0.0000000000000000000, 1.999999999999999112 ) ) ;
#158 = VERTEX_POINT ( 'NONE', #100 ) ;
#159 = CC_DESIGN_APPROVAL ( #186, ( #243 ) ) ;
#160 = VERTEX_POINT ( 'NONE', #2 ) ;
#161 = CALENDAR_DATE ( 2021, 17, 11 ) ;
#162 = PERSON_AND_ORGANIZATION ( #150, #22 ) ;
#163 = AXIS2_PLACEMENT_3D ( 'NONE', #12, #75, #98 ) ;
#164 = SECURITY_CLASSIFICATION ( '', '', #105 ) ;
#165 = CARTESIAN_POINT ( 'NONE',  ( 6.982962677686260400E-15, -2.426242237391236936E-16, 1.999999999999998224 ) ) ;
#166 = FACE_OUTER_BOUND ( 'NONE', #217, .T. ) ;
#167 = DIRECTION ( 'NONE',  ( 4.275831445896958607E-31, 1.000000000000000000, 1.224646799147353207E-16 ) ) ;
#168 = AXIS2_PLACEMENT_3D ( 'NONE', #114, #204, #118 ) ;
#169 = DIRECTION ( 'NONE',  ( 0.0000000000000000000, 1.000000000000000000, 0.0000000000000000000 ) ) ;
#170 = DIRECTION ( 'NONE',  ( 0.0000000000000000000, -1.000000000000000000, 0.0000000000000000000 ) ) ;
#171 = DIRECTION ( 'NONE',  ( -4.333342374871280669E-31, -1.000000000000000000, -1.219727444046192488E-16 ) ) ;
#172 = AXIS2_PLACEMENT_3D ( 'NONE', #73, #56, #167 ) ;
#173 = DIRECTION ( 'NONE',  ( -4.275831445896958607E-31, -1.000000000000000000, -1.224646799147353207E-16 ) ) ;
#174 = LOCAL_TIME ( 10, 31, 53.00000000000000000, #178 ) ;
#175 = CARTESIAN_POINT ( 'NONE',  ( 1.745740669421566678E-13, 1.700000000000003508, 50.00000000000000000 ) ) ;
#176 = EDGE_CURVE ( 'NONE', #158, #158, #60, .T. ) ;
#177 = APPROVAL_STATUS ( 'not_yet_approved' ) ;
#178 = COORDINATED_UNIVERSAL_TIME_OFFSET ( 1, 0, .AHEAD. ) ;
#179 = CIRCLE ( 'NONE', #126, 0.4999999999999902300 ) ;
#180 = ORIENTED_EDGE ( 'NONE', *, *, #53, .F. ) ;
#181 = PERSON_AND_ORGANIZATION_ROLE ( 'creator' ) ;
#182 = EDGE_CURVE ( 'NONE', #226, #226, #215, .T. ) ;
#183 = CALENDAR_DATE ( 2021, 17, 11 ) ;
#184 = EDGE_LOOP ( 'NONE', ( #9 ) ) ;
#185 = DIRECTION ( 'NONE',  ( -4.333342374871280669E-31, -1.000000000000000000, -1.219727444046192488E-16 ) ) ;
#186 = APPROVAL ( #145, 'UNSPECIFIED' ) ;
#187 = FACE_OUTER_BOUND ( 'NONE', #200, .T. ) ;
#188 = UNCERTAINTY_MEASURE_WITH_UNIT (LENGTH_MEASURE( 1.000000000000000082E-05 ), #39, 'distance_accuracy_value', 'NONE');
#189 = DIRECTION ( 'NONE',  ( -3.491481338843133355E-15, 1.224646799147353207E-16, -1.000000000000000000 ) ) ;
#190 = PRODUCT ( '51704', '51704', '', ( #127 ) ) ;
#191 = DIRECTION ( 'NONE',  ( 3.491481338843133355E-15, -1.213121118695619454E-16, 1.000000000000000000 ) ) ;
#192 = FACE_BOUND ( 'NONE', #27, .T. ) ;
#193 = PLANE ( 'NONE',  #78 ) ;
#194 = ADVANCED_FACE ( 'NONE', ( #134, #166 ), #57, .T. ) ;
#195 = ORIENTED_EDGE ( 'NONE', *, *, #117, .F. ) ;
#196 = PERSON_AND_ORGANIZATION_ROLE ( 'design_supplier' ) ;
#197 = ORIENTED_EDGE ( 'NONE', *, *, #176, .T. ) ;
#198 = CC_DESIGN_PERSON_AND_ORGANIZATION_ASSIGNMENT ( #49, #228, ( #164 ) ) ;
#199 = COORDINATED_UNIVERSAL_TIME_OFFSET ( 1, 0, .AHEAD. ) ;
#200 = EDGE_LOOP ( 'NONE', ( #4 ) ) ;
#201 = ORIENTED_EDGE ( 'NONE', *, *, #182, .T. ) ;
#202 = PLANE ( 'NONE',  #124 ) ;
#203 = CC_DESIGN_PERSON_AND_ORGANIZATION_ASSIGNMENT ( #214, #65, ( #225 ) ) ;
#204 = DIRECTION ( 'NONE',  ( -3.491481338843133355E-15, 1.224646799147353207E-16, -1.000000000000000000 ) ) ;
#205 = DIRECTION ( 'NONE',  ( 3.491481338843133355E-15, -1.230103241304255752E-16, 1.000000000000000000 ) ) ;
#206 = FACE_OUTER_BOUND ( 'NONE', #88, .T. ) ;
#207 = FACE_OUTER_BOUND ( 'NONE', #146, .T. ) ;
#208 = AXIS2_PLACEMENT_3D ( 'NONE', #34, #137, #238 ) ;
#209 = ADVANCED_FACE ( 'NONE', ( #19 ), #193, .T. ) ;
#210 = AXIS2_PLACEMENT_3D ( 'NONE', #120, #189, #239 ) ;
#211 = DATE_TIME_ROLE ( 'creation_date' ) ;
#212 = ORIENTED_EDGE ( 'NONE', *, *, #156, .F. ) ;
#213 = EDGE_LOOP ( 'NONE', ( #212 ) ) ;
#214 = PERSON_AND_ORGANIZATION ( #150, #22 ) ;
#215 = CIRCLE ( 'NONE', #81, 0.4500000000000002887 ) ;
#216 = CALENDAR_DATE ( 2021, 17, 11 ) ;
#217 = EDGE_LOOP ( 'NONE', ( #131 ) ) ;
#218 = DIRECTION ( 'NONE',  ( -4.294882511864261787E-31, -1.000000000000000000, -1.230103241304255752E-16 ) ) ;
#219 = CC_DESIGN_APPROVAL ( #231, ( #164 ) ) ;
#220 = FACE_OUTER_BOUND ( 'NONE', #144, .T. ) ;
#221 = ADVANCED_BREP_SHAPE_REPRESENTATION ( '51704', ( #28, #20, #1 ), #40 ) ;
#222 = CYLINDRICAL_SURFACE ( 'NONE', #208, 0.4999999999999910072 ) ;
#223 = FACE_OUTER_BOUND ( 'NONE', #30, .T. ) ;
#224 = LOCAL_TIME ( 10, 31, 53.00000000000000000, #26 ) ;
#225 = PRODUCT_DEFINITION ( 'UNKNOWN', '', #243, #135 ) ;
#226 = VERTEX_POINT ( 'NONE', #59 ) ;
#227 =( NAMED_UNIT ( * ) PLANE_ANGLE_UNIT ( ) SI_UNIT ( $, .RADIAN. ) );
#228 = PERSON_AND_ORGANIZATION_ROLE ( 'classification_officer' ) ;
#229 = CIRCLE ( 'NONE', #93, 1.999999999999998668 ) ;
#230 = CALENDAR_DATE ( 2021, 17, 11 ) ;
#231 = APPROVAL ( #177, 'UNSPECIFIED' ) ;
#232 = EDGE_LOOP ( 'NONE', ( #129 ) ) ;
#233 = APPROVAL_ROLE ( '' ) ;
#234 = DIRECTION ( 'NONE',  ( 1.000000000000000000, 0.0000000000000000000, 0.0000000000000000000 ) ) ;
#235 = LOCAL_TIME ( 10, 31, 53.00000000000000000, #199 ) ;
#236 = CARTESIAN_POINT ( 'NONE',  ( 1.745740669421566678E-13, 1.274795815262577325E-32, 50.00000000000000000 ) ) ;
#237 = CARTESIAN_POINT ( 'NONE',  ( 1.745740669421549914E-16, -6.150516206521249329E-18, 0.04999999999999951705 ) ) ;
#238 = DIRECTION ( 'NONE',  ( -4.235589747682259566E-31, -1.000000000000000000, -1.213121118695619700E-16 ) ) ;
#239 = DIRECTION ( 'NONE',  ( 0.0000000000000000000, 1.000000000000000000, 0.0000000000000000000 ) ) ;
#240 = CARTESIAN_POINT ( 'NONE',  ( 1.745740669421549914E-16, -6.150516206521249329E-18, 0.04999999999999951705 ) ) ;
#241 = APPROVAL ( #148, 'UNSPECIFIED' ) ;
#242 = VERTEX_POINT ( 'NONE', #83 ) ;
#243 = PRODUCT_DEFINITION_FORMATION_WITH_SPECIFIED_SOURCE ( 'ANY', '', #190, .NOT_KNOWN. ) ;
ENDSEC;
END-ISO-10303-21;
