ISO-10303-21;
HEADER;
FILE_DESCRIPTION (( 'STEP AP203' ),
    '1' );
FILE_NAME ('51625.step',
    '2021-11-24T06:51:44',
    ( '' ),
    ( '' ),
    'SwSTEP 2.0',
    'SolidWorks 2019',
    '' );
FILE_SCHEMA (( 'CONFIG_CONTROL_DESIGN' ));
ENDSEC;

DATA;
#1 = PRODUCT_RELATED_PRODUCT_CATEGORY ( 'detail', '', ( #127 ) ) ;
#2 = EDGE_LOOP ( 'NONE', ( #109 ) ) ;
#3 = PERSON_AND_ORGANIZATION ( #51, #102 ) ;
#4 = VERTEX_POINT ( 'NONE', #229 ) ;
#5 = APPROVAL_STATUS ( 'not_yet_approved' ) ;
#6 = CALENDAR_DATE ( 2021, 24, 11 ) ;
#7 = TOROIDAL_SURFACE ( 'NONE', #16, 8.749999999999998224, 8.000000000000000000 ) ;
#8 = FACE_BOUND ( 'NONE', #19, .T. ) ;
#9 = DIRECTION ( 'NONE',  ( -4.275831445896957731E-31, -1.000000000000000000, -1.224646799147352961E-16 ) ) ;
#10 = CARTESIAN_POINT ( 'NONE',  ( 7.493225739684087693E-15, 5.624099184981959187E-33, 2.146145149430152888 ) ) ;
#11 = VERTEX_POINT ( 'NONE', #226 ) ;
#12 = CIRCLE ( 'NONE', #147, 0.09537169507482298747 ) ;
#13 = DIRECTION ( 'NONE',  ( -3.491481338843133355E-15, 1.224646799147352961E-16, -1.000000000000000000 ) ) ;
#14 = DIRECTION ( 'NONE',  ( 0.0000000000000000000, 1.000000000000000000, 0.0000000000000000000 ) ) ;
#15 = EDGE_LOOP ( 'NONE', ( #171 ) ) ;
#16 = AXIS2_PLACEMENT_3D ( 'NONE', #143, #140, #46 ) ;
#17 = ORIENTED_EDGE ( 'NONE', *, *, #241, .F. ) ;
#18 =( LENGTH_UNIT ( ) NAMED_UNIT ( * ) SI_UNIT ( .MILLI., .METRE. ) );
#19 = EDGE_LOOP ( 'NONE', ( #94 ) ) ;
#20 = DATE_TIME_ROLE ( 'classification_date' ) ;
#21 = CC_DESIGN_PERSON_AND_ORGANIZATION_ASSIGNMENT ( #193, #62, ( #76 ) ) ;
#22 = UNCERTAINTY_MEASURE_WITH_UNIT (LENGTH_MEASURE( 1.000000000000000082E-05 ), #18, 'distance_accuracy_value', 'NONE');
#23 = PERSON_AND_ORGANIZATION ( #51, #102 ) ;
#24 = LOCAL_TIME ( 7, 51, 44.00000000000000000, #98 ) ;
#25 = PLANE ( 'NONE',  #187 ) ;
#26 = CALENDAR_DATE ( 2021, 24, 11 ) ;
#27 = SPHERICAL_SURFACE ( 'NONE', #61, 0.1000000000000000333 ) ;
#28 = CC_DESIGN_SECURITY_CLASSIFICATION ( #53, ( #197 ) ) ;
#29 = DIRECTION ( 'NONE',  ( 0.0000000000000000000, 1.000000000000000000, 0.0000000000000000000 ) ) ;
#30 = DIRECTION ( 'NONE',  ( 0.0000000000000000000, 1.000000000000000000, 0.0000000000000000000 ) ) ;
#31 = DIRECTION ( 'NONE',  ( -3.491481338843133355E-15, 1.224646799147352961E-16, -1.000000000000000000 ) ) ;
#32 = CIRCLE ( 'NONE', #169, 0.7499999999999997780 ) ;
#33 = DIRECTION ( 'NONE',  ( 0.0000000000000000000, 1.000000000000000000, 0.0000000000000000000 ) ) ;
#34 = DIRECTION ( 'NONE',  ( 1.000000000000000000, 0.0000000000000000000, 0.0000000000000000000 ) ) ;
#35 = ORIENTED_EDGE ( 'NONE', *, *, #97, .F. ) ;
#36 = CARTESIAN_POINT ( 'NONE',  ( 1.316288464743861212E-13, -4.616918432785520292E-15, 37.69999999999999574 ) ) ;
#37 = DATE_AND_TIME ( #26, #170 ) ;
#38 = DATE_AND_TIME ( #6, #24 ) ;
#39 = DIRECTION ( 'NONE',  ( 4.275831445896957731E-31, 1.000000000000000000, 1.224646799147353207E-16 ) ) ;
#40 = CIRCLE ( 'NONE', #160, 1.499999999999996891 ) ;
#41 = APPROVAL_ROLE ( '' ) ;
#42 = DIRECTION ( 'NONE',  ( 4.275831445896958607E-31, 1.000000000000000000, 1.224646799147352961E-16 ) ) ;
#43 = CARTESIAN_POINT ( 'NONE',  ( 2.367900757518974887E-14, -8.305477824363906558E-16, 6.781937314617165313 ) ) ;
#44 = CARTESIAN_POINT ( 'NONE',  ( 1.316288464743861212E-13, 1.499999999999998446, 37.69999999999999574 ) ) ;
#45 = APPROVAL_PERSON_ORGANIZATION ( #190, #106, #56 ) ;
#46 = DIRECTION ( 'NONE',  ( 4.355100981429075892E-31, 1.000000000000000000, 1.224646799147352961E-16 ) ) ;
#47 = CC_DESIGN_PERSON_AND_ORGANIZATION_ASSIGNMENT ( #23, #214, ( #197 ) ) ;
#48 = DIRECTION ( 'NONE',  ( -4.275831445896957731E-31, -1.000000000000000000, -1.224646799147352961E-16 ) ) ;
#49 = FACE_OUTER_BOUND ( 'NONE', #145, .T. ) ;
#50 = CC_DESIGN_DATE_AND_TIME_ASSIGNMENT ( #38, #20, ( #53 ) ) ;
#51 = PERSON ( 'UNSPECIFIED', 'UNSPECIFIED', 'UNSPECIFIED', ('UNSPECIFIED'), ('UNSPECIFIED'), ('UNSPECIFIED') ) ;
#52 = CARTESIAN_POINT ( 'NONE',  ( 0.0000000000000000000, 0.0000000000000000000, 0.0000000000000000000 ) ) ;
#53 = SECURITY_CLASSIFICATION ( '', '', #194 ) ;
#54 = ORIENTED_EDGE ( 'NONE', *, *, #231, .T. ) ;
#55 = CARTESIAN_POINT ( 'NONE',  ( 0.0000000000000000000, 0.0000000000000000000, 0.0000000000000000000 ) ) ;
#56 = APPROVAL_ROLE ( '' ) ;
#57 = VERTEX_POINT ( 'NONE', #211 ) ;
#58 = APPROVAL_ROLE ( '' ) ;
#59 = FACE_OUTER_BOUND ( 'NONE', #150, .T. ) ;
#60 = APPROVAL_STATUS ( 'not_yet_approved' ) ;
#61 = AXIS2_PLACEMENT_3D ( 'NONE', #179, #157, #216 ) ;
#62 = PERSON_AND_ORGANIZATION_ROLE ( 'creator' ) ;
#63 = PERSON_AND_ORGANIZATION ( #51, #102 ) ;
#64 = CARTESIAN_POINT ( 'NONE',  ( 2.441572651392081213E-16, -8.563884042994068389E-18, 0.06992942004957332369 ) ) ;
#65 = CLOSED_SHELL ( 'NONE', ( #227, #166, #110 ) ) ;
#66 = CIRCLE ( 'NONE', #205, 0.7499999999999993339 ) ;
#67 = CC_DESIGN_PERSON_AND_ORGANIZATION_ASSIGNMENT ( #63, #136, ( #127 ) ) ;
#68 = DIRECTION ( 'NONE',  ( 3.491481338843133355E-15, -1.224646799147352961E-16, 1.000000000000000000 ) ) ;
#69 = DIRECTION ( 'NONE',  ( -3.491481338843133355E-15, 1.224646799147352961E-16, -1.000000000000000000 ) ) ;
#70 = MANIFOLD_SOLID_BREP ( 'Corps-Déplacer/Copier2[1]', #133 ) ;
#71 = CARTESIAN_POINT ( 'NONE',  ( 0.0000000000000000000, 0.0000000000000000000, 0.0000000000000000000 ) ) ;
#72 = CC_DESIGN_PERSON_AND_ORGANIZATION_ASSIGNMENT ( #152, #95, ( #53 ) ) ;
#73 = EDGE_LOOP ( 'NONE', ( #168 ) ) ;
#74 = ORIENTED_EDGE ( 'NONE', *, *, #154, .F. ) ;
#75 = APPLICATION_PROTOCOL_DEFINITION ( 'international standard', 'config_control_design', 1994, #124 ) ;
#76 = PRODUCT_DEFINITION ( 'UNKNOWN', '', #197, #116 ) ;
#77 = CC_DESIGN_APPROVAL ( #164, ( #197 ) ) ;
#78 = VERTEX_POINT ( 'NONE', #191 ) ;
#79 = CYLINDRICAL_SURFACE ( 'NONE', #156, 1.500000000000000000 ) ;
#80 = CALENDAR_DATE ( 2021, 24, 11 ) ;
#81 =( NAMED_UNIT ( * ) SI_UNIT ( $, .STERADIAN. ) SOLID_ANGLE_UNIT ( ) );
#82 = DIRECTION ( 'NONE',  ( 3.491481338843133355E-15, -1.224646799147352961E-16, 1.000000000000000000 ) ) ;
#83 = CARTESIAN_POINT ( 'NONE',  ( 7.493225739684087693E-15, -2.628269787755254432E-16, 2.146145149430152888 ) ) ;
#84 = DIRECTION ( 'NONE',  ( 4.275831445896957731E-31, 1.000000000000000000, 1.224646799147352961E-16 ) ) ;
#85 = APPROVAL ( #173, 'UNSPECIFIED' ) ;
#86 = VERTEX_POINT ( 'NONE', #44 ) ;
#87 = AXIS2_PLACEMENT_3D ( 'NONE', #120, #218, #240 ) ;
#88 = FACE_OUTER_BOUND ( 'NONE', #107, .T. ) ;
#89 = DIRECTION ( 'NONE',  ( -3.491481338843133355E-15, 1.224646799147352961E-16, -1.000000000000000000 ) ) ;
#90 = ORIENTED_EDGE ( 'NONE', *, *, #210, .T. ) ;
#91 = AXIS2_PLACEMENT_3D ( 'NONE', #10, #68, #9 ) ;
#92 = EDGE_LOOP ( 'NONE', ( #222 ) ) ;
#93 = EDGE_LOOP ( 'NONE', ( #54 ) ) ;
#94 = ORIENTED_EDGE ( 'NONE', *, *, #200, .F. ) ;
#95 = PERSON_AND_ORGANIZATION_ROLE ( 'classification_officer' ) ;
#96 = CALENDAR_DATE ( 2021, 24, 11 ) ;
#97 = EDGE_CURVE ( 'NONE', #86, #86, #204, .T. ) ;
#98 = COORDINATED_UNIVERSAL_TIME_OFFSET ( 1, 0, .AHEAD. ) ;
#99 = ADVANCED_FACE ( 'NONE', ( #151, #207 ), #79, .T. ) ;
#100 = DATE_TIME_ROLE ( 'creation_date' ) ;
#101 = DIRECTION ( 'NONE',  ( -3.491481338843133355E-15, 1.224646799147352961E-16, -1.000000000000000000 ) ) ;
#102 = ORGANIZATION ( 'UNSPECIFIED', 'UNSPECIFIED', '' ) ;
#103 = CARTESIAN_POINT ( 'NONE',  ( 1.187103655206665499E-14, -4.163799117101000559E-16, 3.400000000000000799 ) ) ;
#104 = DIRECTION ( 'NONE',  ( -3.491481338843133355E-15, 1.224646799147352961E-16, -1.000000000000000000 ) ) ;
#105 = CARTESIAN_POINT ( 'NONE',  ( 1.326762908760390423E-13, 8.998558695971097751E-33, 38.00000000000000000 ) ) ;
#106 = APPROVAL ( #5, 'UNSPECIFIED' ) ;
#107 = EDGE_LOOP ( 'NONE', ( #188 ) ) ;
#108 = EDGE_LOOP ( 'NONE', ( #35 ) ) ;
#109 = ORIENTED_EDGE ( 'NONE', *, *, #241, .T. ) ;
#110 = ADVANCED_FACE ( 'NONE', ( #59 ), #25, .T. ) ;
#111 = COORDINATED_UNIVERSAL_TIME_OFFSET ( 1, 0, .AHEAD. ) ;
#112 = SHAPE_DEFINITION_REPRESENTATION ( #221, #233 ) ;
#113 = AXIS2_PLACEMENT_3D ( 'NONE', #71, #180, #42 ) ;
#114 = CC_DESIGN_DATE_AND_TIME_ASSIGNMENT ( #176, #100, ( #76 ) ) ;
#115 = EDGE_CURVE ( 'NONE', #158, #158, #125, .T. ) ;
#116 = DESIGN_CONTEXT ( 'detailed design', #235, 'design' ) ;
#117 = DIRECTION ( 'NONE',  ( -3.491481338843133355E-15, 1.224646799147352961E-16, -1.000000000000000000 ) ) ;
#118 = CARTESIAN_POINT ( 'NONE',  ( 7.493225739684087693E-15, 0.7499999999999995559, 2.146145149430152888 ) ) ;
#119 = PLANE ( 'NONE',  #91 ) ;
#120 = CARTESIAN_POINT ( 'NONE',  ( 7.493225739684087693E-15, -2.628269787755254432E-16, 2.146145149430152888 ) ) ;
#121 = PLANE ( 'NONE',  #223 ) ;
#122 = APPROVAL_PERSON_ORGANIZATION ( #232, #164, #58 ) ;
#123 = PERSON_AND_ORGANIZATION ( #51, #102 ) ;
#124 = APPLICATION_CONTEXT ( 'configuration controlled 3d designs of mechanical parts and assemblies' ) ;
#125 = CIRCLE ( 'NONE', #213, 0.7499999999999997780 ) ;
#126 = DIRECTION ( 'NONE',  ( 0.0000000000000000000, 0.0000000000000000000, 1.000000000000000000 ) ) ;
#127 = PRODUCT ( '51625', '51625', '', ( #224 ) ) ;
#128 = EDGE_LOOP ( 'NONE', ( #90 ) ) ;
#129 = ADVANCED_FACE ( 'NONE', ( #162, #163 ), #7, .F. ) ;
#130 = CARTESIAN_POINT ( 'NONE',  ( 2.441572651392081706E-16, 0.09537169507482297359, 0.06992942004957333757 ) ) ;
#131 = DIRECTION ( 'NONE',  ( 0.0000000000000000000, 1.000000000000000000, 0.0000000000000000000 ) ) ;
#132 = APPROVAL_DATE_TIME ( #228, #85 ) ;
#133 = CLOSED_SHELL ( 'NONE', ( #161, #174, #129, #99, #141, #177 ) ) ;
#134 = CC_DESIGN_APPROVAL ( #85, ( #76 ) ) ;
#135 = COORDINATED_UNIVERSAL_TIME_OFFSET ( 1, 0, .AHEAD. ) ;
#136 = PERSON_AND_ORGANIZATION_ROLE ( 'design_owner' ) ;
#137 = CC_DESIGN_PERSON_AND_ORGANIZATION_ASSIGNMENT ( #3, #138, ( #197 ) ) ;
#138 = PERSON_AND_ORGANIZATION_ROLE ( 'creator' ) ;
#139 = APPROVAL_DATE_TIME ( #37, #164 ) ;
#140 = DIRECTION ( 'NONE',  ( -3.491481338843133355E-15, 1.224646799147352961E-16, -1.000000000000000000 ) ) ;
#141 = ADVANCED_FACE ( 'NONE', ( #184, #238 ), #182, .T. ) ;
#142 = AXIS2_PLACEMENT_3D ( 'NONE', #36, #225, #131 ) ;
#143 = CARTESIAN_POINT ( 'NONE',  ( 1.187103655206665183E-14, 0.0000000000000000000, 3.399999999999999911 ) ) ;
#144 = EDGE_LOOP ( 'NONE', ( #203 ) ) ;
#145 = EDGE_LOOP ( 'NONE', ( #74 ) ) ;
#146 = VERTEX_POINT ( 'NONE', #130 ) ;
#147 = AXIS2_PLACEMENT_3D ( 'NONE', #64, #236, #196 ) ;
#148 =( GEOMETRIC_REPRESENTATION_CONTEXT ( 3 ) GLOBAL_UNCERTAINTY_ASSIGNED_CONTEXT ( ( #22 ) ) GLOBAL_UNIT_ASSIGNED_CONTEXT ( ( #18, #149, #81 ) ) REPRESENTATION_CONTEXT ( 'NONE', 'WORKASPACE' ) );
#149 =( NAMED_UNIT ( * ) PLANE_ANGLE_UNIT ( ) SI_UNIT ( $, .RADIAN. ) );
#150 = EDGE_LOOP ( 'NONE', ( #186 ) ) ;
#151 = FACE_OUTER_BOUND ( 'NONE', #92, .T. ) ;
#152 = PERSON_AND_ORGANIZATION ( #51, #102 ) ;
#153 = APPROVAL_PERSON_ORGANIZATION ( #123, #85, #41 ) ;
#154 = EDGE_CURVE ( 'NONE', #11, #11, #165, .T. ) ;
#155 = CALENDAR_DATE ( 2021, 24, 11 ) ;
#156 = AXIS2_PLACEMENT_3D ( 'NONE', #55, #69, #39 ) ;
#157 = DIRECTION ( 'NONE',  ( 1.000000000000000000, -8.298529501018661104E-33, -3.491481338843132961E-15 ) ) ;
#158 = VERTEX_POINT ( 'NONE', #118 ) ;
#159 = CARTESIAN_POINT ( 'NONE',  ( 1.326762908760390423E-13, -4.653657836759941152E-15, 38.00000000000000000 ) ) ;
#160 = AXIS2_PLACEMENT_3D ( 'NONE', #43, #117, #29 ) ;
#161 = ADVANCED_FACE ( 'NONE', ( #198 ), #119, .F. ) ;
#162 = FACE_OUTER_BOUND ( 'NONE', #93, .T. ) ;
#163 = FACE_OUTER_BOUND ( 'NONE', #206, .T. ) ;
#164 = APPROVAL ( #60, 'UNSPECIFIED' ) ;
#165 = CIRCLE ( 'NONE', #189, 1.200000000000003064 ) ;
#166 = ADVANCED_FACE ( 'NONE', ( #8, #201 ), #195, .T. ) ;
#167 = AXIS2_PLACEMENT_3D ( 'NONE', #52, #126, #34 ) ;
#168 = ORIENTED_EDGE ( 'NONE', *, *, #200, .T. ) ;
#169 = AXIS2_PLACEMENT_3D ( 'NONE', #83, #199, #30 ) ;
#170 = LOCAL_TIME ( 7, 51, 44.00000000000000000, #192 ) ;
#171 = ORIENTED_EDGE ( 'NONE', *, *, #97, .T. ) ;
#172 = APPROVAL_DATE_TIME ( #212, #106 ) ;
#173 = APPROVAL_STATUS ( 'not_yet_approved' ) ;
#174 = ADVANCED_FACE ( 'NONE', ( #88, #234 ), #220, .T. ) ;
#175 = CARTESIAN_POINT ( 'NONE',  ( 7.493225739684087693E-15, 5.624099184981959187E-33, 2.146145149430152888 ) ) ;
#176 = DATE_AND_TIME ( #155, #183 ) ;
#177 = ADVANCED_FACE ( 'NONE', ( #49 ), #121, .F. ) ;
#178 = LOCAL_TIME ( 7, 51, 44.00000000000000000, #111 ) ;
#179 = CARTESIAN_POINT ( 'NONE',  ( 3.491481338843133355E-16, -1.224646799147353269E-17, 0.1000000000000000056 ) ) ;
#180 = DIRECTION ( 'NONE',  ( -3.491481338843133355E-15, 1.224646799147352961E-16, -1.000000000000000000 ) ) ;
#181 = DIRECTION ( 'NONE',  ( 0.0000000000000000000, 1.000000000000000000, 0.0000000000000000000 ) ) ;
#182 = CONICAL_SURFACE ( 'NONE', #217, 1.200000000000003064, 0.7853981633974453924 ) ;
#183 = LOCAL_TIME ( 7, 51, 44.00000000000000000, #209 ) ;
#184 = FACE_OUTER_BOUND ( 'NONE', #108, .T. ) ;
#185 = ORIENTED_EDGE ( 'NONE', *, *, #154, .T. ) ;
#186 = ORIENTED_EDGE ( 'NONE', *, *, #115, .F. ) ;
#187 = AXIS2_PLACEMENT_3D ( 'NONE', #175, #82, #48 ) ;
#188 = ORIENTED_EDGE ( 'NONE', *, *, #210, .F. ) ;
#189 = AXIS2_PLACEMENT_3D ( 'NONE', #219, #13, #14 ) ;
#190 = PERSON_AND_ORGANIZATION ( #51, #102 ) ;
#191 = CARTESIAN_POINT ( 'NONE',  ( 7.493225739684087693E-15, 0.7499999999999995559, 2.146145149430152888 ) ) ;
#192 = COORDINATED_UNIVERSAL_TIME_OFFSET ( 1, 0, .AHEAD. ) ;
#193 = PERSON_AND_ORGANIZATION ( #51, #102 ) ;
#194 = SECURITY_CLASSIFICATION_LEVEL ( 'unclassified' ) ;
#195 = CONICAL_SURFACE ( 'NONE', #87, 0.7499999999999997780, 0.3054326190990009349 ) ;
#196 = DIRECTION ( 'NONE',  ( 5.048484099177080866E-31, 1.000000000000000000, 1.421021944239985973E-16 ) ) ;
#197 = PRODUCT_DEFINITION_FORMATION_WITH_SPECIFIED_SOURCE ( 'ANY', '', #127, .NOT_KNOWN. ) ;
#198 = FACE_OUTER_BOUND ( 'NONE', #128, .T. ) ;
#199 = DIRECTION ( 'NONE',  ( -3.491481338843133355E-15, 1.224646799147352961E-16, -1.000000000000000000 ) ) ;
#200 = EDGE_CURVE ( 'NONE', #146, #146, #12, .T. ) ;
#201 = FACE_OUTER_BOUND ( 'NONE', #144, .T. ) ;
#202 = DIRECTION ( 'NONE',  ( 0.0000000000000000000, 1.000000000000000000, 0.0000000000000000000 ) ) ;
#203 = ORIENTED_EDGE ( 'NONE', *, *, #115, .T. ) ;
#204 = CIRCLE ( 'NONE', #142, 1.500000000000003109 ) ;
#205 = AXIS2_PLACEMENT_3D ( 'NONE', #103, #104, #181 ) ;
#206 = EDGE_LOOP ( 'NONE', ( #17 ) ) ;
#207 = FACE_OUTER_BOUND ( 'NONE', #15, .T. ) ;
#208 = LOCAL_TIME ( 7, 51, 44.00000000000000000, #135 ) ;
#209 = COORDINATED_UNIVERSAL_TIME_OFFSET ( 1, 0, .AHEAD. ) ;
#210 = EDGE_CURVE ( 'NONE', #78, #78, #32, .T. ) ;
#211 = CARTESIAN_POINT ( 'NONE',  ( 2.367900757518974887E-14, 1.499999999999996225, 6.781937314617165313 ) ) ;
#212 = DATE_AND_TIME ( #96, #178 ) ;
#213 = AXIS2_PLACEMENT_3D ( 'NONE', #237, #101, #202 ) ;
#214 = PERSON_AND_ORGANIZATION_ROLE ( 'design_supplier' ) ;
#215 = FACE_OUTER_BOUND ( 'NONE', #73, .T. ) ;
#216 = DIRECTION ( 'NONE',  ( 4.814824860968087881E-31, 1.000000000000000000, 1.355252715606880049E-16 ) ) ;
#217 = AXIS2_PLACEMENT_3D ( 'NONE', #159, #31, #33 ) ;
#218 = DIRECTION ( 'NONE',  ( 3.491481338843133355E-15, -1.224646799147352961E-16, 1.000000000000000000 ) ) ;
#219 = CARTESIAN_POINT ( 'NONE',  ( 1.326762908760390423E-13, -4.653657836759941152E-15, 38.00000000000000000 ) ) ;
#220 = CYLINDRICAL_SURFACE ( 'NONE', #113, 0.7499999999999995559 ) ;
#221 = PRODUCT_DEFINITION_SHAPE ( 'NONE', 'NONE',  #76 ) ;
#222 = ORIENTED_EDGE ( 'NONE', *, *, #231, .F. ) ;
#223 = AXIS2_PLACEMENT_3D ( 'NONE', #105, #89, #84 ) ;
#224 = MECHANICAL_CONTEXT ( 'NONE', #124, 'mechanical' ) ;
#225 = DIRECTION ( 'NONE',  ( -3.491481338843133355E-15, 1.224646799147352961E-16, -1.000000000000000000 ) ) ;
#226 = CARTESIAN_POINT ( 'NONE',  ( 1.326762908760390423E-13, 1.199999999999998623, 38.00000000000000000 ) ) ;
#227 = ADVANCED_FACE ( 'NONE', ( #215 ), #27, .T. ) ;
#228 = DATE_AND_TIME ( #80, #208 ) ;
#229 = CARTESIAN_POINT ( 'NONE',  ( 1.187103655206665499E-14, 0.7499999999999988898, 3.400000000000000799 ) ) ;
#230 = APPLICATION_PROTOCOL_DEFINITION ( 'international standard', 'config_control_design', 1994, #235 ) ;
#231 = EDGE_CURVE ( 'NONE', #57, #57, #40, .T. ) ;
#232 = PERSON_AND_ORGANIZATION ( #51, #102 ) ;
#233 = ADVANCED_BREP_SHAPE_REPRESENTATION ( '51625', ( #70, #239, #167 ), #148 ) ;
#234 = FACE_OUTER_BOUND ( 'NONE', #2, .T. ) ;
#235 = APPLICATION_CONTEXT ( 'configuration controlled 3d designs of mechanical parts and assemblies' ) ;
#236 = DIRECTION ( 'NONE',  ( -3.491481338843133355E-15, 1.224646799147352961E-16, -1.000000000000000000 ) ) ;
#237 = CARTESIAN_POINT ( 'NONE',  ( 7.493225739684087693E-15, -2.628269787755254432E-16, 2.146145149430152888 ) ) ;
#238 = FACE_BOUND ( 'NONE', #243, .T. ) ;
#239 = MANIFOLD_SOLID_BREP ( 'Corps-Déplacer/Copier2[2]', #65 ) ;
#240 = DIRECTION ( 'NONE',  ( 0.0000000000000000000, -1.000000000000000000, 0.0000000000000000000 ) ) ;
#241 = EDGE_CURVE ( 'NONE', #4, #4, #66, .T. ) ;
#242 = CC_DESIGN_APPROVAL ( #106, ( #53 ) ) ;
#243 = EDGE_LOOP ( 'NONE', ( #185 ) ) ;
ENDSEC;
END-ISO-10303-21;
