ISO-10303-21;
HEADER;
FILE_DESCRIPTION (( 'STEP AP203' ),
    '1' );
FILE_NAME ('5093.step',
    '2021-12-06T12:59:46',
    ( '' ),
    ( '' ),
    'SwSTEP 2.0',
    'SolidWorks 2019',
    '' );
FILE_SCHEMA (( 'CONFIG_CONTROL_DESIGN' ));
ENDSEC;

DATA;
#1 = COORDINATED_UNIVERSAL_TIME_OFFSET ( 1, 0, .AHEAD. ) ;
#2 = APPLICATION_PROTOCOL_DEFINITION ( 'international standard', 'config_control_design', 1994, #153 ) ;
#3 = APPROVAL_PERSON_ORGANIZATION ( #80, #94, #101 ) ;
#4 = FACE_OUTER_BOUND ( 'NONE', #50, .T. ) ;
#5 = PERSON_AND_ORGANIZATION ( #85, #65 ) ;
#6 = ORIENTED_EDGE ( 'NONE', *, *, #106, .F. ) ;
#7 = AXIS2_PLACEMENT_3D ( 'NONE', #132, #63, #167 ) ;
#8 = PERSON_AND_ORGANIZATION ( #85, #65 ) ;
#9 = CC_DESIGN_APPROVAL ( #155, ( #137 ) ) ;
#10 = PERSON_AND_ORGANIZATION_ROLE ( 'creator' ) ;
#11 = ADVANCED_FACE ( 'NONE', ( #59, #130 ), #163, .T. ) ;
#12 = DIRECTION ( 'NONE',  ( 5.497497573296088761E-31, 1.000000000000000000, 1.574545884618025235E-16 ) ) ;
#13 =( GEOMETRIC_REPRESENTATION_CONTEXT ( 3 ) GLOBAL_UNCERTAINTY_ASSIGNED_CONTEXT ( ( #138 ) ) GLOBAL_UNIT_ASSIGNED_CONTEXT ( ( #54, #77, #168 ) ) REPRESENTATION_CONTEXT ( 'NONE', 'WORKASPACE' ) );
#14 = CIRCLE ( 'NONE', #91, 31.50000000000000000 ) ;
#15 = APPROVAL_DATE_TIME ( #145, #94 ) ;
#16 = EDGE_LOOP ( 'NONE', ( #6 ) ) ;
#17 = PERSON_AND_ORGANIZATION ( #85, #65 ) ;
#18 = ORIENTED_EDGE ( 'NONE', *, *, #149, .T. ) ;
#19 = SHAPE_DEFINITION_REPRESENTATION ( #158, #60 ) ;
#20 = DIRECTION ( 'NONE',  ( -5.497497573296088761E-31, -1.000000000000000000, -1.574545884618025235E-16 ) ) ;
#21 = ORIENTED_EDGE ( 'NONE', *, *, #57, .F. ) ;
#22 = AXIS2_PLACEMENT_3D ( 'NONE', #27, #112, #93 ) ;
#23 = FACE_OUTER_BOUND ( 'NONE', #64, .T. ) ;
#24 = VERTEX_POINT ( 'NONE', #26 ) ;
#25 = ADVANCED_FACE ( 'NONE', ( #117, #165 ), #105, .T. ) ;
#26 = CARTESIAN_POINT ( 'NONE',  ( 4.888073874380387486E-15, 8.000000000000000000, 1.400000000000000133 ) ) ;
#27 = CARTESIAN_POINT ( 'NONE',  ( 4.888073874380382753E-15, -2.204364238465233604E-16, 1.399999999999998801 ) ) ;
#28 = APPROVAL_PERSON_ORGANIZATION ( #8, #124, #122 ) ;
#29 = DATE_AND_TIME ( #97, #113 ) ;
#30 = DESIGN_CONTEXT ( 'detailed design', #153, 'design' ) ;
#31 = APPROVAL_PERSON_ORGANIZATION ( #100, #155, #139 ) ;
#32 = PERSON_AND_ORGANIZATION_ROLE ( 'creator' ) ;
#33 = CALENDAR_DATE ( 2021, 6, 12 ) ;
#34 = EDGE_LOOP ( 'NONE', ( #129 ) ) ;
#35 = DATE_TIME_ROLE ( 'classification_date' ) ;
#36 = EDGE_LOOP ( 'NONE', ( #147 ) ) ;
#37 = DIRECTION ( 'NONE',  ( -3.491481338843133355E-15, 1.574545884618025235E-16, -1.000000000000000000 ) ) ;
#38 = CIRCLE ( 'NONE', #7, 8.000000000000000000 ) ;
#39 = PRODUCT_RELATED_PRODUCT_CATEGORY ( 'detail', '', ( #141 ) ) ;
#40 = PLANE ( 'NONE',  #42 ) ;
#41 = PERSON_AND_ORGANIZATION ( #85, #65 ) ;
#42 = AXIS2_PLACEMENT_3D ( 'NONE', #67, #110, #12 ) ;
#43 = APPROVAL_STATUS ( 'not_yet_approved' ) ;
#44 = APPLICATION_CONTEXT ( 'configuration controlled 3d designs of mechanical parts and assemblies' ) ;
#45 = AXIS2_PLACEMENT_3D ( 'NONE', #154, #37, #90 ) ;
#46 = PERSON_AND_ORGANIZATION ( #85, #65 ) ;
#47 = CALENDAR_DATE ( 2021, 6, 12 ) ;
#48 = CC_DESIGN_PERSON_AND_ORGANIZATION_ASSIGNMENT ( #5, #127, ( #137 ) ) ;
#49 = COORDINATED_UNIVERSAL_TIME_OFFSET ( 1, 0, .AHEAD. ) ;
#50 = EDGE_LOOP ( 'NONE', ( #140 ) ) ;
#51 = CIRCLE ( 'NONE', #22, 8.000000000000000000 ) ;
#52 = DIRECTION ( 'NONE',  ( -3.491481338843133355E-15, 1.574545884618025235E-16, -1.000000000000000000 ) ) ;
#53 = DIRECTION ( 'NONE',  ( 1.000000000000000000, 0.0000000000000000000, 0.0000000000000000000 ) ) ;
#54 =( LENGTH_UNIT ( ) NAMED_UNIT ( * ) SI_UNIT ( .MILLI., .METRE. ) );
#55 = CALENDAR_DATE ( 2021, 6, 12 ) ;
#56 = FACE_BOUND ( 'NONE', #36, .T. ) ;
#57 = EDGE_CURVE ( 'NONE', #79, #79, #14, .T. ) ;
#58 = ORIENTED_EDGE ( 'NONE', *, *, #149, .F. ) ;
#59 = FACE_OUTER_BOUND ( 'NONE', #34, .T. ) ;
#60 = ADVANCED_BREP_SHAPE_REPRESENTATION ( '5093', ( #146, #62 ), #13 ) ;
#61 = EDGE_LOOP ( 'NONE', ( #58 ) ) ;
#62 = AXIS2_PLACEMENT_3D ( 'NONE', #120, #143, #53 ) ;
#63 = DIRECTION ( 'NONE',  ( -3.491481338843133355E-15, 1.574545884618025235E-16, -1.000000000000000000 ) ) ;
#64 = EDGE_LOOP ( 'NONE', ( #119 ) ) ;
#65 = ORGANIZATION ( 'UNSPECIFIED', 'UNSPECIFIED', '' ) ;
#66 = CC_DESIGN_DATE_AND_TIME_ASSIGNMENT ( #84, #35, ( #137 ) ) ;
#67 = CARTESIAN_POINT ( 'NONE',  ( -6.459559648622903528E-30, 8.000000000000000000, -1.850091414426179614E-15 ) ) ;
#68 = CARTESIAN_POINT ( 'NONE',  ( 4.888073874380386697E-15, 31.50000000000000000, 1.399999999999999911 ) ) ;
#69 = PRODUCT_DEFINITION ( 'UNKNOWN', '', #150, #30 ) ;
#70 = CIRCLE ( 'NONE', #45, 31.50000000000000000 ) ;
#71 = COORDINATED_UNIVERSAL_TIME_OFFSET ( 1, 0, .AHEAD. ) ;
#72 = APPROVAL_STATUS ( 'not_yet_approved' ) ;
#73 = PERSON_AND_ORGANIZATION_ROLE ( 'design_supplier' ) ;
#74 = DIRECTION ( 'NONE',  ( 5.497497573296088761E-31, 1.000000000000000000, 1.574545884618025235E-16 ) ) ;
#75 = DIRECTION ( 'NONE',  ( 5.380375717653230473E-31, 1.000000000000000000, 1.583279362994704809E-16 ) ) ;
#76 = CC_DESIGN_PERSON_AND_ORGANIZATION_ASSIGNMENT ( #17, #73, ( #150 ) ) ;
#77 =( NAMED_UNIT ( * ) PLANE_ANGLE_UNIT ( ) SI_UNIT ( $, .RADIAN. ) );
#78 = CC_DESIGN_APPROVAL ( #124, ( #69 ) ) ;
#79 = VERTEX_POINT ( 'NONE', #68 ) ;
#80 = PERSON_AND_ORGANIZATION ( #85, #65 ) ;
#81 = CYLINDRICAL_SURFACE ( 'NONE', #160, 8.000000000000000000 ) ;
#82 = CC_DESIGN_PERSON_AND_ORGANIZATION_ASSIGNMENT ( #123, #125, ( #141 ) ) ;
#83 = CC_DESIGN_SECURITY_CLASSIFICATION ( #137, ( #150 ) ) ;
#84 = DATE_AND_TIME ( #33, #87 ) ;
#85 = PERSON ( 'UNSPECIFIED', 'UNSPECIFIED', 'UNSPECIFIED', ('UNSPECIFIED'), ('UNSPECIFIED'), ('UNSPECIFIED') ) ;
#86 = CC_DESIGN_PERSON_AND_ORGANIZATION_ASSIGNMENT ( #46, #32, ( #150 ) ) ;
#87 = LOCAL_TIME ( 13, 59, 46.00000000000000000, #116 ) ;
#88 = CARTESIAN_POINT ( 'NONE',  ( 0.0000000000000000000, 0.0000000000000000000, 0.0000000000000000000 ) ) ;
#89 = DIRECTION ( 'NONE',  ( -3.491481338843133355E-15, 1.574545884618025235E-16, -1.000000000000000000 ) ) ;
#90 = DIRECTION ( 'NONE',  ( 5.497497573296088761E-31, 1.000000000000000000, 1.574545884618025235E-16 ) ) ;
#91 = AXIS2_PLACEMENT_3D ( 'NONE', #152, #89, #75 ) ;
#92 = FACE_OUTER_BOUND ( 'NONE', #61, .T. ) ;
#93 = DIRECTION ( 'NONE',  ( 5.777789833161707559E-31, 1.000000000000000000, 1.626303258728256651E-16 ) ) ;
#94 = APPROVAL ( #135, 'UNSPECIFIED' ) ;
#95 = CARTESIAN_POINT ( 'NONE',  ( 0.0000000000000000000, 31.50000000000000000, 0.0000000000000000000 ) ) ;
#96 = CLOSED_SHELL ( 'NONE', ( #114, #11, #25, #131 ) ) ;
#97 = CALENDAR_DATE ( 2021, 6, 12 ) ;
#98 = COORDINATED_UNIVERSAL_TIME_OFFSET ( 1, 0, .AHEAD. ) ;
#99 = LOCAL_TIME ( 13, 59, 46.00000000000000000, #71 ) ;
#100 = PERSON_AND_ORGANIZATION ( #85, #65 ) ;
#101 = APPROVAL_ROLE ( '' ) ;
#102 = CC_DESIGN_APPROVAL ( #94, ( #150 ) ) ;
#103 = APPROVAL_DATE_TIME ( #162, #155 ) ;
#104 = EDGE_CURVE ( 'NONE', #136, #136, #38, .T. ) ;
#105 = PLANE ( 'NONE',  #161 ) ;
#106 = EDGE_CURVE ( 'NONE', #133, #133, #70, .T. ) ;
#107 = CARTESIAN_POINT ( 'NONE',  ( 4.888073874380380387E-15, 8.000000000000000000, 1.399999999999998357 ) ) ;
#108 = EDGE_LOOP ( 'NONE', ( #18 ) ) ;
#109 = CC_DESIGN_DATE_AND_TIME_ASSIGNMENT ( #29, #144, ( #69 ) ) ;
#110 = DIRECTION ( 'NONE',  ( -3.491481338843133355E-15, 1.574545884618025235E-16, -1.000000000000000000 ) ) ;
#111 = DATE_AND_TIME ( #55, #121 ) ;
#112 = DIRECTION ( 'NONE',  ( -3.491481338843133355E-15, 1.574545884618025235E-16, -1.000000000000000000 ) ) ;
#113 = LOCAL_TIME ( 13, 59, 46.00000000000000000, #98 ) ;
#114 = ADVANCED_FACE ( 'NONE', ( #23, #56 ), #40, .T. ) ;
#115 = SECURITY_CLASSIFICATION_LEVEL ( 'unclassified' ) ;
#116 = COORDINATED_UNIVERSAL_TIME_OFFSET ( 1, 0, .AHEAD. ) ;
#117 = FACE_BOUND ( 'NONE', #108, .T. ) ;
#118 = LOCAL_TIME ( 13, 59, 46.00000000000000000, #49 ) ;
#119 = ORIENTED_EDGE ( 'NONE', *, *, #106, .T. ) ;
#120 = CARTESIAN_POINT ( 'NONE',  ( 0.0000000000000000000, 0.0000000000000000000, 0.0000000000000000000 ) ) ;
#121 = LOCAL_TIME ( 13, 59, 46.00000000000000000, #1 ) ;
#122 = APPROVAL_ROLE ( '' ) ;
#123 = PERSON_AND_ORGANIZATION ( #85, #65 ) ;
#124 = APPROVAL ( #43, 'UNSPECIFIED' ) ;
#125 = PERSON_AND_ORGANIZATION_ROLE ( 'design_owner' ) ;
#126 = CARTESIAN_POINT ( 'NONE',  ( 0.0000000000000000000, 8.000000000000000000, 0.0000000000000000000 ) ) ;
#127 = PERSON_AND_ORGANIZATION_ROLE ( 'classification_officer' ) ;
#128 = CALENDAR_DATE ( 2021, 6, 12 ) ;
#129 = ORIENTED_EDGE ( 'NONE', *, *, #57, .T. ) ;
#130 = FACE_OUTER_BOUND ( 'NONE', #16, .T. ) ;
#131 = ADVANCED_FACE ( 'NONE', ( #4, #92 ), #81, .F. ) ;
#132 = CARTESIAN_POINT ( 'NONE',  ( -4.397998058636871009E-30, 1.983355794214047767E-31, -1.259636707694420188E-15 ) ) ;
#133 = VERTEX_POINT ( 'NONE', #95 ) ;
#134 = DIRECTION ( 'NONE',  ( -3.491481338843133355E-15, 1.574545884618025235E-16, -1.000000000000000000 ) ) ;
#135 = APPROVAL_STATUS ( 'not_yet_approved' ) ;
#136 = VERTEX_POINT ( 'NONE', #126 ) ;
#137 = SECURITY_CLASSIFICATION ( '', '', #115 ) ;
#138 = UNCERTAINTY_MEASURE_WITH_UNIT (LENGTH_MEASURE( 1.000000000000000082E-05 ), #54, 'distance_accuracy_value', 'NONE');
#139 = APPROVAL_ROLE ( '' ) ;
#140 = ORIENTED_EDGE ( 'NONE', *, *, #104, .T. ) ;
#141 = PRODUCT ( '5093', '5093', '', ( #156 ) ) ;
#142 = DIRECTION ( 'NONE',  ( 5.497497573296088761E-31, 1.000000000000000000, 1.574545884618025235E-16 ) ) ;
#143 = DIRECTION ( 'NONE',  ( 0.0000000000000000000, 0.0000000000000000000, 1.000000000000000000 ) ) ;
#144 = DATE_TIME_ROLE ( 'creation_date' ) ;
#145 = DATE_AND_TIME ( #47, #118 ) ;
#146 = MANIFOLD_SOLID_BREP ( 'Corps-Déplacer/Copier1', #96 ) ;
#147 = ORIENTED_EDGE ( 'NONE', *, *, #104, .F. ) ;
#148 = AXIS2_PLACEMENT_3D ( 'NONE', #88, #52, #74 ) ;
#149 = EDGE_CURVE ( 'NONE', #24, #24, #51, .T. ) ;
#150 = PRODUCT_DEFINITION_FORMATION_WITH_SPECIFIED_SOURCE ( 'ANY', '', #141, .NOT_KNOWN. ) ;
#151 = DIRECTION ( 'NONE',  ( 3.491481338843133355E-15, -1.574545884618025235E-16, 1.000000000000000000 ) ) ;
#152 = CARTESIAN_POINT ( 'NONE',  ( 4.888073874380369342E-15, -2.204364238465227441E-16, 1.399999999999995026 ) ) ;
#153 = APPLICATION_CONTEXT ( 'configuration controlled 3d designs of mechanical parts and assemblies' ) ;
#154 = CARTESIAN_POINT ( 'NONE',  ( -1.731711735588268017E-29, 7.809463439717812043E-31, -4.959819536546779811E-15 ) ) ;
#155 = APPROVAL ( #72, 'UNSPECIFIED' ) ;
#156 = MECHANICAL_CONTEXT ( 'NONE', #44, 'mechanical' ) ;
#157 = APPLICATION_PROTOCOL_DEFINITION ( 'international standard', 'config_control_design', 1994, #44 ) ;
#158 = PRODUCT_DEFINITION_SHAPE ( 'NONE', 'NONE',  #69 ) ;
#159 = APPROVAL_DATE_TIME ( #111, #124 ) ;
#160 = AXIS2_PLACEMENT_3D ( 'NONE', #169, #134, #142 ) ;
#161 = AXIS2_PLACEMENT_3D ( 'NONE', #107, #151, #20 ) ;
#162 = DATE_AND_TIME ( #128, #99 ) ;
#163 = CYLINDRICAL_SURFACE ( 'NONE', #148, 31.50000000000000000 ) ;
#164 = CC_DESIGN_PERSON_AND_ORGANIZATION_ASSIGNMENT ( #41, #10, ( #69 ) ) ;
#165 = FACE_OUTER_BOUND ( 'NONE', #166, .T. ) ;
#166 = EDGE_LOOP ( 'NONE', ( #21 ) ) ;
#167 = DIRECTION ( 'NONE',  ( 5.497497573296088761E-31, 1.000000000000000000, 1.574545884618025235E-16 ) ) ;
#168 =( NAMED_UNIT ( * ) SI_UNIT ( $, .STERADIAN. ) SOLID_ANGLE_UNIT ( ) );
#169 = CARTESIAN_POINT ( 'NONE',  ( 0.0000000000000000000, 0.0000000000000000000, 0.0000000000000000000 ) ) ;
ENDSEC;
END-ISO-10303-21;
