ISO-10303-21;
HEADER;
FILE_DESCRIPTION (( 'STEP AP203' ),
    '1' );
FILE_NAME ('50671.step',
    '2021-09-03T07:22:41',
    ( '' ),
    ( '' ),
    'SwSTEP 2.0',
    'SolidWorks 2019',
    '' );
FILE_SCHEMA (( 'CONFIG_CONTROL_DESIGN' ));
ENDSEC;

DATA;
#1 = PERSON_AND_ORGANIZATION ( #255, #154 ) ;
#2 = DIRECTION ( 'NONE',  ( 0.0000000000000000000, 1.000000000000000000, 0.0000000000000000000 ) ) ;
#3 = AXIS2_PLACEMENT_3D ( 'NONE', #274, #292, #170 ) ;
#4 = DIRECTION ( 'NONE',  ( -3.491481338843133355E-15, 1.224646799147353207E-16, -1.000000000000000000 ) ) ;
#5 = EDGE_CURVE ( 'NONE', #210, #42, #238, .T. ) ;
#6 = DIRECTION ( 'NONE',  ( -3.491481338843133355E-15, 1.224646799147353207E-16, -1.000000000000000000 ) ) ;
#7 = CARTESIAN_POINT ( 'NONE',  ( 8.728703347107833388E-14, 3.599999999999985434, 25.00000000000000000 ) ) ;
#8 = CIRCLE ( 'NONE', #142, 3.599999999999988542 ) ;
#9 = ORIENTED_EDGE ( 'NONE', *, *, #330, .F. ) ;
#10 = CARTESIAN_POINT ( 'NONE',  ( 2.555764340033173364E-13, 3.599999999999985434, 73.20000000000000284 ) ) ;
#11 = CC_DESIGN_PERSON_AND_ORGANIZATION_ASSIGNMENT ( #244, #201, ( #111 ) ) ;
#12 = CARTESIAN_POINT ( 'NONE',  ( 0.0000000000000000000, 0.0000000000000000000, 0.0000000000000000000 ) ) ;
#13 = EDGE_LOOP ( 'NONE', ( #277, #324, #110, #112 ) ) ;
#14 = EDGE_LOOP ( 'NONE', ( #9, #24 ) ) ;
#15 = DIRECTION ( 'NONE',  ( 1.000000000000000000, 0.0000000000000000000, 0.0000000000000000000 ) ) ;
#16 = VECTOR ( 'NONE', #335, 1000.000000000000000 ) ;
#17 = AXIS2_PLACEMENT_3D ( 'NONE', #71, #264, #15 ) ;
#18 = CARTESIAN_POINT ( 'NONE',  ( 0.0000000000000000000, 0.0000000000000000000, 0.0000000000000000000 ) ) ;
#19 = VERTEX_POINT ( 'NONE', #260 ) ;
#20 = DIRECTION ( 'NONE',  ( -3.491481338843133355E-15, 1.224646799147353207E-16, -1.000000000000000000 ) ) ;
#21 = PERSON_AND_ORGANIZATION ( #255, #154 ) ;
#22 = EDGE_CURVE ( 'NONE', #19, #92, #176, .T. ) ;
#23 = CYLINDRICAL_SURFACE ( 'NONE', #159, 3.599999999999991651 ) ;
#24 = ORIENTED_EDGE ( 'NONE', *, *, #208, .F. ) ;
#25 = VERTEX_POINT ( 'NONE', #7 ) ;
#26 = ORIENTED_EDGE ( 'NONE', *, *, #89, .T. ) ;
#27 = ORIENTED_EDGE ( 'NONE', *, *, #160, .F. ) ;
#28 = AXIS2_PLACEMENT_3D ( 'NONE', #289, #227, #337 ) ;
#29 = DATE_AND_TIME ( #308, #56 ) ;
#30 = SECURITY_CLASSIFICATION_LEVEL ( 'unclassified' ) ;
#31 = CARTESIAN_POINT ( 'NONE',  ( 2.583696190743918430E-13, -9.062386313690413585E-15, 74.00000000000000000 ) ) ;
#32 = EDGE_LOOP ( 'NONE', ( #228, #64, #177, #285 ) ) ;
#33 = CYLINDRICAL_SURFACE ( 'NONE', #164, 3.599999999999987210 ) ;
#34 = ADVANCED_FACE ( 'NONE', ( #52 ), #304, .T. ) ;
#35 = CONICAL_SURFACE ( 'NONE', #314, 2.799999999999994937, 0.7853981633974512766 ) ;
#36 = DIRECTION ( 'NONE',  ( -2.468850131082257455E-15, 0.7071067811865497932, -0.7071067811865453523 ) ) ;
#37 = APPROVAL ( #328, 'UNSPECIFIED' ) ;
#38 = VERTEX_POINT ( 'NONE', #10 ) ;
#39 = VERTEX_POINT ( 'NONE', #44 ) ;
#40 = CARTESIAN_POINT ( 'NONE',  ( 1.539299320522899773E-30, 3.599999999999987210, 4.408728476930455867E-16 ) ) ;
#41 = CYLINDRICAL_SURFACE ( 'NONE', #262, 3.599999999999991651 ) ;
#42 = VERTEX_POINT ( 'NONE', #66 ) ;
#43 = DIRECTION ( 'NONE',  ( -4.275831445896958607E-31, -1.000000000000000000, -1.224646799147353207E-16 ) ) ;
#44 = CARTESIAN_POINT ( 'NONE',  ( 0.0000000000000000000, 0.0000000000000000000, 0.0000000000000000000 ) ) ;
#45 = AXIS2_PLACEMENT_3D ( 'NONE', #87, #6, #84 ) ;
#46 = EDGE_LOOP ( 'NONE', ( #279, #169, #316, #68 ) ) ;
#47 = CC_DESIGN_DATE_AND_TIME_ASSIGNMENT ( #183, #100, ( #302 ) ) ;
#48 = DIRECTION ( 'NONE',  ( 0.0000000000000000000, 1.000000000000000000, 0.0000000000000000000 ) ) ;
#49 = AXIS2_PLACEMENT_3D ( 'NONE', #79, #181, #108 ) ;
#50 = CC_DESIGN_APPROVAL ( #60, ( #119 ) ) ;
#51 = COORDINATED_UNIVERSAL_TIME_OFFSET ( 1, 0, .AHEAD. ) ;
#52 = FACE_OUTER_BOUND ( 'NONE', #268, .T. ) ;
#53 = COORDINATED_UNIVERSAL_TIME_OFFSET ( 1, 0, .AHEAD. ) ;
#54 = CLOSED_SHELL ( 'NONE', ( #127, #237, #34, #161, #287 ) ) ;
#55 = APPROVAL_DATE_TIME ( #204, #60 ) ;
#56 = LOCAL_TIME ( 9, 22, 41.00000000000000000, #224 ) ;
#57 = PLANE ( 'NONE',  #173 ) ;
#58 = ORIENTED_EDGE ( 'NONE', *, *, #93, .F. ) ;
#59 = FACE_OUTER_BOUND ( 'NONE', #243, .T. ) ;
#60 = APPROVAL ( #107, 'UNSPECIFIED' ) ;
#61 = DIRECTION ( 'NONE',  ( -3.491481338843133355E-15, 1.224646799147353207E-16, -1.000000000000000000 ) ) ;
#62 = CIRCLE ( 'NONE', #186, 3.599999999999988542 ) ;
#63 = CC_DESIGN_SECURITY_CLASSIFICATION ( #119, ( #111 ) ) ;
#64 = ORIENTED_EDGE ( 'NONE', *, *, #172, .T. ) ;
#65 = DIRECTION ( 'NONE',  ( 4.275831445896958607E-31, 1.000000000000000000, 1.224646799147353207E-16 ) ) ;
#66 = CARTESIAN_POINT ( 'NONE',  ( 7.552417098889706963E-15, -3.599999999999986322, 2.163098228499231723 ) ) ;
#67 = DIRECTION ( 'NONE',  ( 1.903218546456022717E-15, 0.8571673007021097801, 0.5150380749100585964 ) ) ;
#68 = ORIENTED_EDGE ( 'NONE', *, *, #152, .F. ) ;
#69 = LINE ( 'NONE', #265, #117 ) ;
#70 = AXIS2_PLACEMENT_3D ( 'NONE', #12, #252, #132 ) ;
#71 = CARTESIAN_POINT ( 'NONE',  ( 0.0000000000000000000, 0.0000000000000000000, 0.0000000000000000000 ) ) ;
#72 = EDGE_CURVE ( 'NONE', #38, #143, #106, .T. ) ;
#73 = FACE_OUTER_BOUND ( 'NONE', #322, .T. ) ;
#74 = DIRECTION ( 'NONE',  ( 0.0000000000000000000, 1.000000000000000000, 0.0000000000000000000 ) ) ;
#75 = VECTOR ( 'NONE', #61, 1000.000000000000000 ) ;
#76 = ORIENTED_EDGE ( 'NONE', *, *, #72, .F. ) ;
#77 = PERSON_AND_ORGANIZATION_ROLE ( 'design_supplier' ) ;
#78 = APPROVAL_ROLE ( '' ) ;
#79 = CARTESIAN_POINT ( 'NONE',  ( 8.728703347107833388E-14, 2.699567608791330557E-32, 25.00000000000000000 ) ) ;
#80 = DIRECTION ( 'NONE',  ( -3.491481338843133355E-15, 1.224646799147353207E-16, -1.000000000000000000 ) ) ;
#81 = CIRCLE ( 'NONE', #256, 3.599999999999985878 ) ;
#82 = DIRECTION ( 'NONE',  ( -3.491481338843133355E-15, 1.224646799147353207E-16, -1.000000000000000000 ) ) ;
#83 = VERTEX_POINT ( 'NONE', #251 ) ;
#84 = DIRECTION ( 'NONE',  ( 0.0000000000000000000, 1.000000000000000000, 0.0000000000000000000 ) ) ;
#85 = CARTESIAN_POINT ( 'NONE',  ( 2.583696190743918430E-13, -9.062386313690413585E-15, 74.00000000000000000 ) ) ;
#86 = DIRECTION ( 'NONE',  ( 0.0000000000000000000, 1.000000000000000000, 0.0000000000000000000 ) ) ;
#87 = CARTESIAN_POINT ( 'NONE',  ( 8.728703347107833388E-14, -3.061616997868383043E-15, 25.00000000000000000 ) ) ;
#88 = CIRCLE ( 'NONE', #45, 3.599999999999988542 ) ;
#89 = EDGE_CURVE ( 'NONE', #92, #19, #95, .T. ) ;
#90 = ORIENTED_EDGE ( 'NONE', *, *, #193, .T. ) ;
#91 = CARTESIAN_POINT ( 'NONE',  ( 1.539299320522901525E-30, 3.599999999999991651, 4.408728476930461291E-16 ) ) ;
#92 = VERTEX_POINT ( 'NONE', #165 ) ;
#93 = EDGE_CURVE ( 'NONE', #39, #167, #182, .T. ) ;
#94 = DIRECTION ( 'NONE',  ( 3.491481338843133355E-15, -1.224646799147353207E-16, 1.000000000000000000 ) ) ;
#95 = CIRCLE ( 'NONE', #326, 2.799999999999994937 ) ;
#96 =( GEOMETRIC_REPRESENTATION_CONTEXT ( 3 ) GLOBAL_UNCERTAINTY_ASSIGNED_CONTEXT ( ( #293 ) ) GLOBAL_UNIT_ASSIGNED_CONTEXT ( ( #141, #297, #145 ) ) REPRESENTATION_CONTEXT ( 'NONE', 'WORKASPACE' ) );
#97 = DIRECTION ( 'NONE',  ( 0.0000000000000000000, 1.000000000000000000, 0.0000000000000000000 ) ) ;
#98 = EDGE_CURVE ( 'NONE', #83, #25, #99, .T. ) ;
#99 = CIRCLE ( 'NONE', #333, 3.599999999999988542 ) ;
#100 = DATE_TIME_ROLE ( 'creation_date' ) ;
#101 = PERSON_AND_ORGANIZATION ( #255, #154 ) ;
#102 = PLANE ( 'NONE',  #49 ) ;
#103 = DATE_TIME_ROLE ( 'classification_date' ) ;
#104 = CC_DESIGN_PERSON_AND_ORGANIZATION_ASSIGNMENT ( #101, #331, ( #302 ) ) ;
#105 = FACE_OUTER_BOUND ( 'NONE', #13, .T. ) ;
#106 = CIRCLE ( 'NONE', #146, 3.599999999999994760 ) ;
#107 = APPROVAL_STATUS ( 'not_yet_approved' ) ;
#108 = DIRECTION ( 'NONE',  ( -4.275831445896958607E-31, -1.000000000000000000, -1.224646799147353207E-16 ) ) ;
#109 = CARTESIAN_POINT ( 'NONE',  ( 4.786059813267704234E-14, -3.599999999999991651, 25.00000000000000000 ) ) ;
#110 = ORIENTED_EDGE ( 'NONE', *, *, #152, .T. ) ;
#111 = PRODUCT_DEFINITION_FORMATION_WITH_SPECIFIED_SOURCE ( 'ANY', '', #235, .NOT_KNOWN. ) ;
#112 = ORIENTED_EDGE ( 'NONE', *, *, #134, .F. ) ;
#113 = ORIENTED_EDGE ( 'NONE', *, *, #98, .T. ) ;
#114 = ORIENTED_EDGE ( 'NONE', *, *, #193, .F. ) ;
#115 = CARTESIAN_POINT ( 'NONE',  ( 7.993289946582755705E-15, 3.599999999999985434, 2.163098228499232611 ) ) ;
#116 = APPLICATION_PROTOCOL_DEFINITION ( 'international standard', 'config_control_design', 1994, #284 ) ;
#117 = VECTOR ( 'NONE', #239, 1000.000000000000114 ) ;
#118 = ORIENTED_EDGE ( 'NONE', *, *, #134, .T. ) ;
#119 = SECURITY_CLASSIFICATION ( '', '', #30 ) ;
#120 = EDGE_LOOP ( 'NONE', ( #26, #149, #76, #114 ) ) ;
#121 = CARTESIAN_POINT ( 'NONE',  ( 2.583696190743918430E-13, -9.062386313690413585E-15, 74.00000000000000000 ) ) ;
#122 = EDGE_LOOP ( 'NONE', ( #196, #219, #303, #123 ) ) ;
#123 = ORIENTED_EDGE ( 'NONE', *, *, #313, .F. ) ;
#124 = APPLICATION_PROTOCOL_DEFINITION ( 'international standard', 'config_control_design', 1994, #222 ) ;
#125 = VECTOR ( 'NONE', #229, 1000.000000000000000 ) ;
#126 = DIRECTION ( 'NONE',  ( -3.491481338843133355E-15, 1.224646799147353207E-16, -1.000000000000000000 ) ) ;
#127 = ADVANCED_FACE ( 'NONE', ( #138 ), #33, .T. ) ;
#128 = CC_DESIGN_APPROVAL ( #130, ( #111 ) ) ;
#129 = CALENDAR_DATE ( 2021, 3, 9 ) ;
#130 = APPROVAL ( #148, 'UNSPECIFIED' ) ;
#131 = LINE ( 'NONE', #158, #125 ) ;
#132 = DIRECTION ( 'NONE',  ( 4.275831445896958607E-31, 1.000000000000000000, 1.224646799147353207E-16 ) ) ;
#133 = CARTESIAN_POINT ( 'NONE',  ( 0.0000000000000000000, 0.0000000000000000000, 0.0000000000000000000 ) ) ;
#134 = EDGE_CURVE ( 'NONE', #42, #167, #220, .T. ) ;
#135 = CARTESIAN_POINT ( 'NONE',  ( 2.555764340033173364E-13, -8.964414569758626729E-15, 73.20000000000000284 ) ) ;
#136 = PRODUCT_RELATED_PRODUCT_CATEGORY ( 'detail', '', ( #235 ) ) ;
#137 = EDGE_LOOP ( 'NONE', ( #27, #312, #162 ) ) ;
#138 = FACE_OUTER_BOUND ( 'NONE', #46, .T. ) ;
#139 = DIRECTION ( 'NONE',  ( -3.491481338843133355E-15, 1.224646799147353207E-16, -1.000000000000000000 ) ) ;
#140 = ORIENTED_EDGE ( 'NONE', *, *, #89, .F. ) ;
#141 =( LENGTH_UNIT ( ) NAMED_UNIT ( * ) SI_UNIT ( .MILLI., .METRE. ) );
#142 = AXIS2_PLACEMENT_3D ( 'NONE', #216, #175, #261 ) ;
#143 = VERTEX_POINT ( 'NONE', #286 ) ;
#144 = DIRECTION ( 'NONE',  ( 3.491481338843133355E-15, -1.224646799147353207E-16, 1.000000000000000000 ) ) ;
#145 =( NAMED_UNIT ( * ) SI_UNIT ( $, .STERADIAN. ) SOLID_ANGLE_UNIT ( ) );
#146 = AXIS2_PLACEMENT_3D ( 'NONE', #135, #254, #2 ) ;
#147 = EDGE_CURVE ( 'NONE', #167, #42, #81, .T. ) ;
#148 = APPROVAL_STATUS ( 'not_yet_approved' ) ;
#149 = ORIENTED_EDGE ( 'NONE', *, *, #306, .T. ) ;
#150 = COORDINATED_UNIVERSAL_TIME_OFFSET ( 1, 0, .AHEAD. ) ;
#151 = CALENDAR_DATE ( 2021, 3, 9 ) ;
#152 = EDGE_CURVE ( 'NONE', #174, #167, #258, .T. ) ;
#153 = AXIS2_PLACEMENT_3D ( 'NONE', #307, #309, #166 ) ;
#154 = ORGANIZATION ( 'UNSPECIFIED', 'UNSPECIFIED', '' ) ;
#155 = DIRECTION ( 'NONE',  ( 4.275831445896958607E-31, 1.000000000000000000, 1.224646799147353207E-16 ) ) ;
#156 = PERSON_AND_ORGANIZATION ( #255, #154 ) ;
#157 = CARTESIAN_POINT ( 'NONE',  ( 8.728703347107833388E-14, -3.061616997868383043E-15, 25.00000000000000000 ) ) ;
#158 = CARTESIAN_POINT ( 'NONE',  ( 7.552417098889706963E-15, -3.599999999999986322, 2.163098228499231723 ) ) ;
#159 = AXIS2_PLACEMENT_3D ( 'NONE', #18, #126, #294 ) ;
#160 = EDGE_CURVE ( 'NONE', #39, #42, #131, .T. ) ;
#161 = ADVANCED_FACE ( 'NONE', ( #105 ), #236, .T. ) ;
#162 = ORIENTED_EDGE ( 'NONE', *, *, #147, .T. ) ;
#163 = ORIENTED_EDGE ( 'NONE', *, *, #172, .F. ) ;
#164 = AXIS2_PLACEMENT_3D ( 'NONE', #278, #189, #65 ) ;
#165 = CARTESIAN_POINT ( 'NONE',  ( 2.583696190743918430E-13, 2.799999999999985612, 74.00000000000000000 ) ) ;
#166 = DIRECTION ( 'NONE',  ( 0.0000000000000000000, 1.000000000000000000, 0.0000000000000000000 ) ) ;
#167 = VERTEX_POINT ( 'NONE', #115 ) ;
#168 = FACE_OUTER_BOUND ( 'NONE', #120, .T. ) ;
#169 = ORIENTED_EDGE ( 'NONE', *, *, #5, .T. ) ;
#170 = DIRECTION ( 'NONE',  ( -4.279844320860540661E-31, -1.000000000000000000, -1.204669080539454028E-16 ) ) ;
#171 = PERSON_AND_ORGANIZATION ( #255, #154 ) ;
#172 = EDGE_CURVE ( 'NONE', #143, #38, #263, .T. ) ;
#173 = AXIS2_PLACEMENT_3D ( 'NONE', #234, #259, #155 ) ;
#174 = VERTEX_POINT ( 'NONE', #191 ) ;
#175 = DIRECTION ( 'NONE',  ( -3.491481338843133355E-15, 1.224646799147353207E-16, -1.000000000000000000 ) ) ;
#176 = CIRCLE ( 'NONE', #281, 2.799999999999994937 ) ;
#177 = ORIENTED_EDGE ( 'NONE', *, *, #313, .T. ) ;
#178 = APPROVAL_DATE_TIME ( #223, #37 ) ;
#179 = COORDINATED_UNIVERSAL_TIME_OFFSET ( 1, 0, .AHEAD. ) ;
#180 = PRODUCT_DEFINITION_SHAPE ( 'NONE', 'NONE',  #302 ) ;
#181 = DIRECTION ( 'NONE',  ( 3.491481338843133355E-15, -1.224646799147353207E-16, 1.000000000000000000 ) ) ;
#182 = LINE ( 'NONE', #319, #190 ) ;
#183 = DATE_AND_TIME ( #151, #257 ) ;
#184 = FACE_OUTER_BOUND ( 'NONE', #122, .T. ) ;
#185 = ADVANCED_FACE ( 'NONE', ( #59 ), #57, .F. ) ;
#186 = AXIS2_PLACEMENT_3D ( 'NONE', #301, #20, #74 ) ;
#187 = ORIENTED_EDGE ( 'NONE', *, *, #22, .T. ) ;
#188 = ADVANCED_FACE ( 'NONE', ( #232 ), #102, .F. ) ;
#189 = DIRECTION ( 'NONE',  ( -3.491481338843133355E-15, 1.224646799147353207E-16, -1.000000000000000000 ) ) ;
#190 = VECTOR ( 'NONE', #67, 999.9999999999998863 ) ;
#191 = CARTESIAN_POINT ( 'NONE',  ( 8.728703347107833388E-14, 3.599999999999985434, 25.00000000000000000 ) ) ;
#192 = ORIENTED_EDGE ( 'NONE', *, *, #283, .T. ) ;
#193 = EDGE_CURVE ( 'NONE', #92, #38, #212, .T. ) ;
#194 = FACE_OUTER_BOUND ( 'NONE', #14, .T. ) ;
#195 = DIRECTION ( 'NONE',  ( -3.491481338843133355E-15, 1.224646799147353207E-16, -1.000000000000000000 ) ) ;
#196 = ORIENTED_EDGE ( 'NONE', *, *, #72, .T. ) ;
#197 = VECTOR ( 'NONE', #36, 1000.000000000000114 ) ;
#198 = FACE_OUTER_BOUND ( 'NONE', #137, .T. ) ;
#199 = CC_DESIGN_DATE_AND_TIME_ASSIGNMENT ( #29, #103, ( #119 ) ) ;
#200 = LINE ( 'NONE', #91, #202 ) ;
#201 = PERSON_AND_ORGANIZATION_ROLE ( 'creator' ) ;
#202 = VECTOR ( 'NONE', #195, 1000.000000000000000 ) ;
#203 = APPROVAL_PERSON_ORGANIZATION ( #156, #60, #78 ) ;
#204 = DATE_AND_TIME ( #334, #242 ) ;
#205 = DATE_AND_TIME ( #305, #327 ) ;
#206 = DIRECTION ( 'NONE',  ( -3.491481338843133355E-15, 1.224646799147353207E-16, -1.000000000000000000 ) ) ;
#207 = DIRECTION ( 'NONE',  ( 4.279844320860540661E-31, 1.000000000000000000, 1.204669080539454028E-16 ) ) ;
#208 = EDGE_CURVE ( 'NONE', #210, #174, #88, .T. ) ;
#209 = CARTESIAN_POINT ( 'NONE',  ( 2.583696190743918430E-13, 2.799999999999985612, 74.00000000000000000 ) ) ;
#210 = VERTEX_POINT ( 'NONE', #109 ) ;
#211 = CARTESIAN_POINT ( 'NONE',  ( 4.408728476930446006E-16, -3.599999999999991651, -4.408728476930476575E-16 ) ) ;
#212 = LINE ( 'NONE', #209, #197 ) ;
#213 = AXIS2_PLACEMENT_3D ( 'NONE', #121, #139, #97 ) ;
#214 = MECHANICAL_CONTEXT ( 'NONE', #284, 'mechanical' ) ;
#215 = ADVANCED_FACE ( 'NONE', ( #184 ), #41, .T. ) ;
#216 = CARTESIAN_POINT ( 'NONE',  ( 8.728703347107833388E-14, -3.061616997868383043E-15, 25.00000000000000000 ) ) ;
#217 = EDGE_CURVE ( 'NONE', #143, #83, #280, .T. ) ;
#218 = CARTESIAN_POINT ( 'NONE',  ( 2.583696190743918430E-13, -9.062386313690413585E-15, 74.00000000000000000 ) ) ;
#219 = ORIENTED_EDGE ( 'NONE', *, *, #217, .T. ) ;
#220 = CIRCLE ( 'NONE', #28, 3.599999999999985878 ) ;
#221 = CARTESIAN_POINT ( 'NONE',  ( 7.552417098889708541E-15, -2.649031321772894315E-16, 2.163098228499232167 ) ) ;
#222 = APPLICATION_CONTEXT ( 'configuration controlled 3d designs of mechanical parts and assemblies' ) ;
#223 = DATE_AND_TIME ( #129, #248 ) ;
#224 = COORDINATED_UNIVERSAL_TIME_OFFSET ( 1, 0, .AHEAD. ) ;
#225 = ADVANCED_FACE ( 'NONE', ( #325 ), #23, .T. ) ;
#226 = APPROVAL_DATE_TIME ( #205, #130 ) ;
#227 = DIRECTION ( 'NONE',  ( -3.491481338843133355E-15, 1.224646799147353207E-16, -1.000000000000000000 ) ) ;
#228 = ORIENTED_EDGE ( 'NONE', *, *, #217, .F. ) ;
#229 = DIRECTION ( 'NONE',  ( 1.798245827342160317E-15, -0.8571673007021098911, 0.5150380749100582634 ) ) ;
#230 = PERSON_AND_ORGANIZATION ( #255, #154 ) ;
#231 = ADVANCED_BREP_SHAPE_REPRESENTATION ( '50671', ( #267, #271, #17 ), #96 ) ;
#232 = FACE_OUTER_BOUND ( 'NONE', #300, .T. ) ;
#233 = AXIS2_PLACEMENT_3D ( 'NONE', #221, #144, #329 ) ;
#234 = CARTESIAN_POINT ( 'NONE',  ( 2.583696190743918430E-13, 2.099663695726583408E-32, 74.00000000000000000 ) ) ;
#235 = PRODUCT ( '50671', '50671', '', ( #214 ) ) ;
#236 = CYLINDRICAL_SURFACE ( 'NONE', #70, 3.599999999999987210 ) ;
#237 = ADVANCED_FACE ( 'NONE', ( #198 ), #288, .T. ) ;
#238 = LINE ( 'NONE', #323, #320 ) ;
#239 = DIRECTION ( 'NONE',  ( -2.382254525458708792E-15, -0.7071067811865495711, -0.7071067811865455743 ) ) ;
#240 = CC_DESIGN_PERSON_AND_ORGANIZATION_ASSIGNMENT ( #21, #291, ( #235 ) ) ;
#241 = PLANE ( 'NONE',  #253 ) ;
#242 = LOCAL_TIME ( 9, 22, 41.00000000000000000, #179 ) ;
#243 = EDGE_LOOP ( 'NONE', ( #140, #332 ) ) ;
#244 = PERSON_AND_ORGANIZATION ( #255, #154 ) ;
#245 = ADVANCED_FACE ( 'NONE', ( #168 ), #35, .T. ) ;
#246 = PERSON_AND_ORGANIZATION_ROLE ( 'classification_officer' ) ;
#247 = CONICAL_SURFACE ( 'NONE', #213, 2.799999999999994937, 0.7853981633974512766 ) ;
#248 = LOCAL_TIME ( 9, 22, 41.00000000000000000, #53 ) ;
#249 = DIRECTION ( 'NONE',  ( 4.275831445896958607E-31, 1.000000000000000000, 1.224646799147353207E-16 ) ) ;
#250 = CC_DESIGN_PERSON_AND_ORGANIZATION_ASSIGNMENT ( #336, #246, ( #119 ) ) ;
#251 = CARTESIAN_POINT ( 'NONE',  ( 1.718726065848908854E-13, -3.599999999999991651, 25.00000000000000000 ) ) ;
#252 = DIRECTION ( 'NONE',  ( -3.491481338843133355E-15, 1.224646799147353207E-16, -1.000000000000000000 ) ) ;
#253 = AXIS2_PLACEMENT_3D ( 'NONE', #269, #94, #43 ) ;
#254 = DIRECTION ( 'NONE',  ( -3.491481338843133355E-15, 1.224646799147353207E-16, -1.000000000000000000 ) ) ;
#255 = PERSON ( 'UNSPECIFIED', 'UNSPECIFIED', 'UNSPECIFIED', ('UNSPECIFIED'), ('UNSPECIFIED'), ('UNSPECIFIED') ) ;
#256 = AXIS2_PLACEMENT_3D ( 'NONE', #310, #206, #207 ) ;
#257 = LOCAL_TIME ( 9, 22, 41.00000000000000000, #51 ) ;
#258 = LINE ( 'NONE', #40, #16 ) ;
#259 = DIRECTION ( 'NONE',  ( -3.491481338843133355E-15, 1.224646799147353207E-16, -1.000000000000000000 ) ) ;
#260 = CARTESIAN_POINT ( 'NONE',  ( 2.573649135145817371E-13, -2.800000000000003819, 74.00000000000000000 ) ) ;
#261 = DIRECTION ( 'NONE',  ( 0.0000000000000000000, 1.000000000000000000, 0.0000000000000000000 ) ) ;
#262 = AXIS2_PLACEMENT_3D ( 'NONE', #133, #276, #249 ) ;
#263 = CIRCLE ( 'NONE', #153, 3.599999999999994760 ) ;
#264 = DIRECTION ( 'NONE',  ( 0.0000000000000000000, 0.0000000000000000000, 1.000000000000000000 ) ) ;
#265 = CARTESIAN_POINT ( 'NONE',  ( 2.587125201781530813E-13, -2.800000000000003819, 74.00000000000000000 ) ) ;
#266 = APPROVAL_ROLE ( '' ) ;
#267 = MANIFOLD_SOLID_BREP ( 'Corps-Déplacer/Copier1[1]', #296 ) ;
#268 = EDGE_LOOP ( 'NONE', ( #58, #272, #118 ) ) ;
#269 = CARTESIAN_POINT ( 'NONE',  ( 8.728703347107833388E-14, 2.699567608791330557E-32, 25.00000000000000000 ) ) ;
#270 = ADVANCED_FACE ( 'NONE', ( #73 ), #247, .T. ) ;
#271 = MANIFOLD_SOLID_BREP ( 'Corps-Déplacer/Copier1[2]', #54 ) ;
#272 = ORIENTED_EDGE ( 'NONE', *, *, #160, .T. ) ;
#273 = APPROVAL_ROLE ( '' ) ;
#274 = CARTESIAN_POINT ( 'NONE',  ( 7.552417098889708541E-15, -2.649031321772894315E-16, 2.163098228499232167 ) ) ;
#275 = SHAPE_DEFINITION_REPRESENTATION ( #180, #231 ) ;
#276 = DIRECTION ( 'NONE',  ( -3.491481338843133355E-15, 1.224646799147353207E-16, -1.000000000000000000 ) ) ;
#277 = ORIENTED_EDGE ( 'NONE', *, *, #5, .F. ) ;
#278 = CARTESIAN_POINT ( 'NONE',  ( 0.0000000000000000000, 0.0000000000000000000, 0.0000000000000000000 ) ) ;
#279 = ORIENTED_EDGE ( 'NONE', *, *, #330, .T. ) ;
#280 = LINE ( 'NONE', #211, #75 ) ;
#281 = AXIS2_PLACEMENT_3D ( 'NONE', #85, #80, #311 ) ;
#282 = APPROVAL_PERSON_ORGANIZATION ( #230, #130, #273 ) ;
#283 = EDGE_CURVE ( 'NONE', #25, #83, #8, .T. ) ;
#284 = APPLICATION_CONTEXT ( 'configuration controlled 3d designs of mechanical parts and assemblies' ) ;
#285 = ORIENTED_EDGE ( 'NONE', *, *, #98, .F. ) ;
#286 = CARTESIAN_POINT ( 'NONE',  ( 1.718726065848907592E-13, -3.600000000000004086, 73.20000000000000284 ) ) ;
#287 = ADVANCED_FACE ( 'NONE', ( #194 ), #241, .T. ) ;
#288 = CONICAL_SURFACE ( 'NONE', #233, 3.599999999999985878, 1.029744258676649649 ) ;
#289 = CARTESIAN_POINT ( 'NONE',  ( 7.552417098889708541E-15, -2.649031321772894315E-16, 2.163098228499232167 ) ) ;
#290 = DIRECTION ( 'NONE',  ( -3.491481338843133355E-15, 1.224646799147353207E-16, -1.000000000000000000 ) ) ;
#291 = PERSON_AND_ORGANIZATION_ROLE ( 'design_owner' ) ;
#292 = DIRECTION ( 'NONE',  ( 3.491481338843133355E-15, -1.224646799147353207E-16, 1.000000000000000000 ) ) ;
#293 = UNCERTAINTY_MEASURE_WITH_UNIT (LENGTH_MEASURE( 1.000000000000000082E-05 ), #141, 'distance_accuracy_value', 'NONE');
#294 = DIRECTION ( 'NONE',  ( 4.275831445896958607E-31, 1.000000000000000000, 1.224646799147353207E-16 ) ) ;
#295 = ORIENTED_EDGE ( 'NONE', *, *, #306, .F. ) ;
#296 = CLOSED_SHELL ( 'NONE', ( #245, #215, #188, #225, #270, #185 ) ) ;
#297 =( NAMED_UNIT ( * ) PLANE_ANGLE_UNIT ( ) SI_UNIT ( $, .RADIAN. ) );
#298 = DESIGN_CONTEXT ( 'detailed design', #222, 'design' ) ;
#299 = DIRECTION ( 'NONE',  ( -3.491481338843133355E-15, 1.224646799147353207E-16, -1.000000000000000000 ) ) ;
#300 = EDGE_LOOP ( 'NONE', ( #192, #113 ) ) ;
#301 = CARTESIAN_POINT ( 'NONE',  ( 8.728703347107833388E-14, -3.061616997868383043E-15, 25.00000000000000000 ) ) ;
#302 = PRODUCT_DEFINITION ( 'UNKNOWN', '', #111, #298 ) ;
#303 = ORIENTED_EDGE ( 'NONE', *, *, #283, .F. ) ;
#304 = CONICAL_SURFACE ( 'NONE', #3, 3.599999999999985878, 1.029744258676649649 ) ;
#305 = CALENDAR_DATE ( 2021, 3, 9 ) ;
#306 = EDGE_CURVE ( 'NONE', #19, #143, #69, .T. ) ;
#307 = CARTESIAN_POINT ( 'NONE',  ( 2.555764340033173364E-13, -8.964414569758626729E-15, 73.20000000000000284 ) ) ;
#308 = CALENDAR_DATE ( 2021, 3, 9 ) ;
#309 = DIRECTION ( 'NONE',  ( -3.491481338843133355E-15, 1.224646799147353207E-16, -1.000000000000000000 ) ) ;
#310 = CARTESIAN_POINT ( 'NONE',  ( 7.552417098889708541E-15, -2.649031321772894315E-16, 2.163098228499232167 ) ) ;
#311 = DIRECTION ( 'NONE',  ( 0.0000000000000000000, 1.000000000000000000, 0.0000000000000000000 ) ) ;
#312 = ORIENTED_EDGE ( 'NONE', *, *, #93, .T. ) ;
#313 = EDGE_CURVE ( 'NONE', #38, #25, #200, .T. ) ;
#314 = AXIS2_PLACEMENT_3D ( 'NONE', #218, #299, #48 ) ;
#315 = CC_DESIGN_APPROVAL ( #37, ( #302 ) ) ;
#316 = ORIENTED_EDGE ( 'NONE', *, *, #147, .F. ) ;
#317 = DIRECTION ( 'NONE',  ( 0.0000000000000000000, 1.000000000000000000, 0.0000000000000000000 ) ) ;
#318 = CC_DESIGN_PERSON_AND_ORGANIZATION_ASSIGNMENT ( #1, #77, ( #111 ) ) ;
#319 = CARTESIAN_POINT ( 'NONE',  ( 7.993289946582755705E-15, 3.599999999999985434, 2.163098228499232611 ) ) ;
#320 = VECTOR ( 'NONE', #290, 1000.000000000000000 ) ;
#321 = APPROVAL_PERSON_ORGANIZATION ( #171, #37, #266 ) ;
#322 = EDGE_LOOP ( 'NONE', ( #295, #187, #90, #163 ) ) ;
#323 = CARTESIAN_POINT ( 'NONE',  ( 4.408728476930441076E-16, -3.599999999999987210, -4.408728476930471151E-16 ) ) ;
#324 = ORIENTED_EDGE ( 'NONE', *, *, #208, .T. ) ;
#325 = FACE_OUTER_BOUND ( 'NONE', #32, .T. ) ;
#326 = AXIS2_PLACEMENT_3D ( 'NONE', #31, #4, #317 ) ;
#327 = LOCAL_TIME ( 9, 22, 41.00000000000000000, #150 ) ;
#328 = APPROVAL_STATUS ( 'not_yet_approved' ) ;
#329 = DIRECTION ( 'NONE',  ( -4.279844320860540661E-31, -1.000000000000000000, -1.204669080539454028E-16 ) ) ;
#330 = EDGE_CURVE ( 'NONE', #174, #210, #62, .T. ) ;
#331 = PERSON_AND_ORGANIZATION_ROLE ( 'creator' ) ;
#332 = ORIENTED_EDGE ( 'NONE', *, *, #22, .F. ) ;
#333 = AXIS2_PLACEMENT_3D ( 'NONE', #157, #82, #86 ) ;
#334 = CALENDAR_DATE ( 2021, 3, 9 ) ;
#335 = DIRECTION ( 'NONE',  ( -3.491481338843133355E-15, 1.224646799147353207E-16, -1.000000000000000000 ) ) ;
#336 = PERSON_AND_ORGANIZATION ( #255, #154 ) ;
#337 = DIRECTION ( 'NONE',  ( 4.279844320860540661E-31, 1.000000000000000000, 1.204669080539454028E-16 ) ) ;
ENDSEC;
END-ISO-10303-21;
