ISO-10303-21;
HEADER;
FILE_DESCRIPTION (( 'STEP AP203' ),
    '1' );
FILE_NAME ('50657.step',
    '2021-10-07T13:48:20',
    ( '' ),
    ( '' ),
    'SwSTEP 2.0',
    'SolidWorks 2019',
    '' );
FILE_SCHEMA (( 'CONFIG_CONTROL_DESIGN' ));
ENDSEC;

DATA;
#1 = APPROVAL ( #65, 'UNSPECIFIED' ) ;
#2 = DIRECTION ( 'NONE',  ( 0.0000000000000000000, 1.000000000000000000, 0.0000000000000000000 ) ) ;
#3 = DIRECTION ( 'NONE',  ( 4.275831445896957731E-31, 1.000000000000000000, 1.224646799147353207E-16 ) ) ;
#4 = DIRECTION ( 'NONE',  ( -3.491481338843133355E-15, 1.224646799147353207E-16, -1.000000000000000000 ) ) ;
#5 = CARTESIAN_POINT ( 'NONE',  ( 4.189777606611760026E-14, 7.086364973077212606E-33, 12.00000000000000000 ) ) ;
#6 = AXIS2_PLACEMENT_3D ( 'NONE', #19, #4, #2 ) ;
#7 = CARTESIAN_POINT ( 'NONE',  ( 1.982509488458542950E-15, -6.953707219653828903E-17, 0.5678132849810467730 ) ) ;
#8 = PERSON_AND_ORGANIZATION_ROLE ( 'design_supplier' ) ;
#9 =( NAMED_UNIT ( * ) PLANE_ANGLE_UNIT ( ) SI_UNIT ( $, .RADIAN. ) );
#10 = APPROVAL_STATUS ( 'not_yet_approved' ) ;
#11 = COORDINATED_UNIVERSAL_TIME_OFFSET ( 1, 0, .AHEAD. ) ;
#12 = APPROVAL ( #10, 'UNSPECIFIED' ) ;
#13 = ORIENTED_EDGE ( 'NONE', *, *, #117, .F. ) ;
#14 = CARTESIAN_POINT ( 'NONE',  ( 0.0000000000000000000, 0.0000000000000000000, 0.0000000000000000000 ) ) ;
#15 = LOCAL_TIME ( 15, 48, 20.00000000000000000, #62 ) ;
#16 = DIRECTION ( 'NONE',  ( 4.275831445896958607E-31, 1.000000000000000000, 1.224646799147353207E-16 ) ) ;
#17 = CIRCLE ( 'NONE', #185, 0.9449999999999936229 ) ;
#18 = VERTEX_POINT ( 'NONE', #104 ) ;
#19 = CARTESIAN_POINT ( 'NONE',  ( 4.223038433510814467E-14, -1.481242486602798645E-15, 12.09526279441629626 ) ) ;
#20 = DIRECTION ( 'NONE',  ( -3.491481338843133355E-15, 1.224646799147353207E-16, -1.000000000000000000 ) ) ;
#21 = DIRECTION ( 'NONE',  ( 4.275831445896958607E-31, 1.000000000000000000, 1.224646799147353207E-16 ) ) ;
#22 = CARTESIAN_POINT ( 'NONE',  ( 1.326762908760390423E-13, 5.999039130647358587E-33, 38.00000000000000000 ) ) ;
#23 = PERSON_AND_ORGANIZATION_ROLE ( 'design_owner' ) ;
#24 = CARTESIAN_POINT ( 'NONE',  ( 4.189777606611760026E-14, 0.9449999999999927347, 12.00000000000000000 ) ) ;
#25 = DATE_AND_TIME ( #127, #82 ) ;
#26 = AXIS2_PLACEMENT_3D ( 'NONE', #119, #61, #123 ) ;
#27 = DATE_AND_TIME ( #137, #49 ) ;
#28 = EDGE_LOOP ( 'NONE', ( #133 ) ) ;
#29 = EDGE_LOOP ( 'NONE', ( #30 ) ) ;
#30 = ORIENTED_EDGE ( 'NONE', *, *, #110, .T. ) ;
#31 = CC_DESIGN_APPROVAL ( #12, ( #206 ) ) ;
#32 = ADVANCED_FACE ( 'NONE', ( #103, #52 ), #170, .T. ) ;
#33 = ORIENTED_EDGE ( 'NONE', *, *, #110, .F. ) ;
#34 = UNCERTAINTY_MEASURE_WITH_UNIT (LENGTH_MEASURE( 1.000000000000000082E-05 ), #115, 'distance_accuracy_value', 'NONE');
#35 = PLANE ( 'NONE',  #89 ) ;
#36 = CC_DESIGN_DATE_AND_TIME_ASSIGNMENT ( #25, #68, ( #206 ) ) ;
#37 = PERSON ( 'UNSPECIFIED', 'UNSPECIFIED', 'UNSPECIFIED', ('UNSPECIFIED'), ('UNSPECIFIED'), ('UNSPECIFIED') ) ;
#38 = DIRECTION ( 'NONE',  ( -3.491481338843133355E-15, 1.224646799147353207E-16, -1.000000000000000000 ) ) ;
#39 = DIRECTION ( 'NONE',  ( 4.076042210343383569E-31, 1.000000000000000000, 1.147303886228054695E-16 ) ) ;
#40 = DIRECTION ( 'NONE',  ( -4.275831445896958607E-31, -1.000000000000000000, -1.224646799147353207E-16 ) ) ;
#41 = LOCAL_TIME ( 15, 48, 20.00000000000000000, #218 ) ;
#42 = ADVANCED_FACE ( 'NONE', ( #85, #108 ), #91, .T. ) ;
#43 = FACE_BOUND ( 'NONE', #169, .T. ) ;
#44 = AXIS2_PLACEMENT_3D ( 'NONE', #14, #171, #16 ) ;
#45 = AXIS2_PLACEMENT_3D ( 'NONE', #92, #75, #194 ) ;
#46 = PERSON_AND_ORGANIZATION ( #37, #163 ) ;
#47 = DIRECTION ( 'NONE',  ( 0.0000000000000000000, 0.0000000000000000000, 1.000000000000000000 ) ) ;
#48 = EDGE_CURVE ( 'NONE', #213, #213, #149, .T. ) ;
#49 = LOCAL_TIME ( 15, 48, 20.00000000000000000, #217 ) ;
#50 = PERSON_AND_ORGANIZATION ( #37, #163 ) ;
#51 = EDGE_LOOP ( 'NONE', ( #71 ) ) ;
#52 = FACE_OUTER_BOUND ( 'NONE', #118, .T. ) ;
#53 = EDGE_LOOP ( 'NONE', ( #222 ) ) ;
#54 = ORIENTED_EDGE ( 'NONE', *, *, #178, .T. ) ;
#55 = AXIS2_PLACEMENT_3D ( 'NONE', #93, #214, #56 ) ;
#56 = DIRECTION ( 'NONE',  ( -4.275831445896958607E-31, -1.000000000000000000, -1.224646799147353207E-16 ) ) ;
#57 = DIRECTION ( 'NONE',  ( 0.0000000000000000000, 1.000000000000000000, 0.0000000000000000000 ) ) ;
#58 = DIRECTION ( 'NONE',  ( -3.491481338843133355E-15, 1.224646799147353207E-16, -1.000000000000000000 ) ) ;
#59 = AXIS2_PLACEMENT_3D ( 'NONE', #159, #58, #57 ) ;
#60 = CARTESIAN_POINT ( 'NONE',  ( 1.326762908760390423E-13, 0.7999999999999949374, 38.00000000000000000 ) ) ;
#61 = DIRECTION ( 'NONE',  ( -3.491481338843133355E-15, 1.224646799147353207E-16, -1.000000000000000000 ) ) ;
#62 = COORDINATED_UNIVERSAL_TIME_OFFSET ( 1, 0, .AHEAD. ) ;
#63 = CLOSED_SHELL ( 'NONE', ( #195, #42, #32, #190, #160 ) ) ;
#64 = CARTESIAN_POINT ( 'NONE',  ( 0.0000000000000000000, 0.0000000000000000000, 0.0000000000000000000 ) ) ;
#65 = APPROVAL_STATUS ( 'not_yet_approved' ) ;
#66 = PRODUCT_DEFINITION_SHAPE ( 'NONE', 'NONE',  #206 ) ;
#67 = LOCAL_TIME ( 15, 48, 20.00000000000000000, #11 ) ;
#68 = DATE_TIME_ROLE ( 'creation_date' ) ;
#69 = ADVANCED_FACE ( 'NONE', ( #122, #174 ), #155, .T. ) ;
#70 = APPROVAL_PERSON_ORGANIZATION ( #162, #212, #148 ) ;
#71 = ORIENTED_EDGE ( 'NONE', *, *, #132, .F. ) ;
#72 = EDGE_LOOP ( 'NONE', ( #154 ) ) ;
#73 = EDGE_LOOP ( 'NONE', ( #13 ) ) ;
#74 = CARTESIAN_POINT ( 'NONE',  ( 1.319779946082704535E-13, -4.629164900776995227E-15, 37.79999999999999716 ) ) ;
#75 = DIRECTION ( 'NONE',  ( -3.491481338843133355E-15, 1.224646799147353207E-16, -1.000000000000000000 ) ) ;
#76 = CARTESIAN_POINT ( 'NONE',  ( 1.982509488458543345E-15, 0.9449999999999935119, 0.5678132849810468841 ) ) ;
#77 = FACE_OUTER_BOUND ( 'NONE', #28, .T. ) ;
#78 = DATE_AND_TIME ( #126, #15 ) ;
#79 = APPROVAL_STATUS ( 'not_yet_approved' ) ;
#80 = APPROVAL_ROLE ( '' ) ;
#81 = MECHANICAL_CONTEXT ( 'NONE', #131, 'mechanical' ) ;
#82 = LOCAL_TIME ( 15, 48, 20.00000000000000000, #219 ) ;
#83 = PERSON_AND_ORGANIZATION ( #37, #163 ) ;
#84 = ORIENTED_EDGE ( 'NONE', *, *, #48, .T. ) ;
#85 = FACE_BOUND ( 'NONE', #152, .T. ) ;
#86 = AXIS2_PLACEMENT_3D ( 'NONE', #22, #192, #21 ) ;
#87 = SHAPE_DEFINITION_REPRESENTATION ( #66, #202 ) ;
#88 = DIRECTION ( 'NONE',  ( 0.0000000000000000000, -1.000000000000000000, 0.0000000000000000000 ) ) ;
#89 = AXIS2_PLACEMENT_3D ( 'NONE', #5, #144, #40 ) ;
#90 = CC_DESIGN_PERSON_AND_ORGANIZATION_ASSIGNMENT ( #129, #8, ( #167 ) ) ;
#91 = CONICAL_SURFACE ( 'NONE', #216, 0.9999999999999970024, 0.5235987755982881575 ) ;
#92 = CARTESIAN_POINT ( 'NONE',  ( 4.189777606611760026E-14, -1.469576158976823947E-15, 12.00000000000000000 ) ) ;
#93 = CARTESIAN_POINT ( 'NONE',  ( 4.189777606611760026E-14, 7.086364973077212606E-33, 12.00000000000000000 ) ) ;
#94 = MANIFOLD_SOLID_BREP ( 'Corps-Déplacer/Copier1[2]', #105 ) ;
#95 = MANIFOLD_SOLID_BREP ( 'Corps-Déplacer/Copier1[1]', #63 ) ;
#96 = CARTESIAN_POINT ( 'NONE',  ( 1.326762908760390423E-13, -4.653657836759941941E-15, 38.00000000000000000 ) ) ;
#97 = CARTESIAN_POINT ( 'NONE',  ( 0.0000000000000000000, 0.0000000000000000000, 0.0000000000000000000 ) ) ;
#98 = ADVANCED_FACE ( 'NONE', ( #121 ), #134, .T. ) ;
#99 = CALENDAR_DATE ( 2021, 7, 10 ) ;
#100 = DATE_TIME_ROLE ( 'classification_date' ) ;
#101 = DIRECTION ( 'NONE',  ( 1.000000000000000000, 0.0000000000000000000, 0.0000000000000000000 ) ) ;
#102 = APPROVAL_DATE_TIME ( #184, #12 ) ;
#103 = FACE_OUTER_BOUND ( 'NONE', #221, .T. ) ;
#104 = CARTESIAN_POINT ( 'NONE',  ( 4.223038433510814467E-14, 0.9999999999999954481, 12.09526279441629626 ) ) ;
#105 = CLOSED_SHELL ( 'NONE', ( #98, #69, #173 ) ) ;
#106 = VERTEX_POINT ( 'NONE', #76 ) ;
#107 = CARTESIAN_POINT ( 'NONE',  ( 1.982509488458542950E-15, -6.953707219653828903E-17, 0.5678132849810467730 ) ) ;
#108 = FACE_OUTER_BOUND ( 'NONE', #29, .T. ) ;
#109 = FACE_OUTER_BOUND ( 'NONE', #204, .T. ) ;
#110 = EDGE_CURVE ( 'NONE', #18, #18, #165, .T. ) ;
#111 = DATE_AND_TIME ( #198, #67 ) ;
#112 =( GEOMETRIC_REPRESENTATION_CONTEXT ( 3 ) GLOBAL_UNCERTAINTY_ASSIGNED_CONTEXT ( ( #34 ) ) GLOBAL_UNIT_ASSIGNED_CONTEXT ( ( #115, #9, #147 ) ) REPRESENTATION_CONTEXT ( 'NONE', 'WORKASPACE' ) );
#113 = PERSON_AND_ORGANIZATION ( #37, #163 ) ;
#114 = CIRCLE ( 'NONE', #205, 0.9999999999999993339 ) ;
#115 =( LENGTH_UNIT ( ) NAMED_UNIT ( * ) SI_UNIT ( .MILLI., .METRE. ) );
#116 = CC_DESIGN_SECURITY_CLASSIFICATION ( #223, ( #167 ) ) ;
#117 = EDGE_CURVE ( 'NONE', #141, #141, #114, .T. ) ;
#118 = EDGE_LOOP ( 'NONE', ( #207 ) ) ;
#119 = CARTESIAN_POINT ( 'NONE',  ( 4.189777606611760026E-14, -1.469576158976823947E-15, 12.00000000000000000 ) ) ;
#120 = VERTEX_POINT ( 'NONE', #193 ) ;
#121 = FACE_OUTER_BOUND ( 'NONE', #53, .T. ) ;
#122 = FACE_OUTER_BOUND ( 'NONE', #51, .T. ) ;
#123 = DIRECTION ( 'NONE',  ( 0.0000000000000000000, 1.000000000000000000, 0.0000000000000000000 ) ) ;
#124 = CC_DESIGN_PERSON_AND_ORGANIZATION_ASSIGNMENT ( #50, #23, ( #200 ) ) ;
#125 = APPROVAL_DATE_TIME ( #78, #1 ) ;
#126 = CALENDAR_DATE ( 2021, 7, 10 ) ;
#127 = CALENDAR_DATE ( 2021, 7, 10 ) ;
#128 = EDGE_CURVE ( 'NONE', #120, #120, #183, .T. ) ;
#129 = PERSON_AND_ORGANIZATION ( #37, #163 ) ;
#130 = AXIS2_PLACEMENT_3D ( 'NONE', #7, #143, #196 ) ;
#131 = APPLICATION_CONTEXT ( 'configuration controlled 3d designs of mechanical parts and assemblies' ) ;
#132 = EDGE_CURVE ( 'NONE', #106, #106, #17, .T. ) ;
#133 = ORIENTED_EDGE ( 'NONE', *, *, #48, .F. ) ;
#134 = CONICAL_SURFACE ( 'NONE', #130, 0.9449999999999936229, 1.029744258676649649 ) ;
#135 = APPROVAL_DATE_TIME ( #27, #212 ) ;
#136 = ORIENTED_EDGE ( 'NONE', *, *, #128, .T. ) ;
#137 = CALENDAR_DATE ( 2021, 7, 10 ) ;
#138 = APPROVAL_PERSON_ORGANIZATION ( #166, #12, #80 ) ;
#139 = EDGE_LOOP ( 'NONE', ( #136 ) ) ;
#140 = DIRECTION ( 'NONE',  ( -3.491481338843133355E-15, 1.224646799147353207E-16, -1.000000000000000000 ) ) ;
#141 = VERTEX_POINT ( 'NONE', #156 ) ;
#142 = AXIS2_PLACEMENT_3D ( 'NONE', #96, #38, #158 ) ;
#143 = DIRECTION ( 'NONE',  ( 3.491481338843133355E-15, -1.224646799147353207E-16, 1.000000000000000000 ) ) ;
#144 = DIRECTION ( 'NONE',  ( 3.491481338843133355E-15, -1.224646799147353207E-16, 1.000000000000000000 ) ) ;
#145 = FACE_OUTER_BOUND ( 'NONE', #72, .T. ) ;
#146 = CC_DESIGN_DATE_AND_TIME_ASSIGNMENT ( #111, #100, ( #223 ) ) ;
#147 =( NAMED_UNIT ( * ) SI_UNIT ( $, .STERADIAN. ) SOLID_ANGLE_UNIT ( ) );
#148 = APPROVAL_ROLE ( '' ) ;
#149 = CIRCLE ( 'NONE', #59, 0.7999999999999996003 ) ;
#150 = APPLICATION_PROTOCOL_DEFINITION ( 'international standard', 'config_control_design', 1994, #153 ) ;
#151 = PERSON_AND_ORGANIZATION_ROLE ( 'creator' ) ;
#152 = EDGE_LOOP ( 'NONE', ( #191 ) ) ;
#153 = APPLICATION_CONTEXT ( 'configuration controlled 3d designs of mechanical parts and assemblies' ) ;
#154 = ORIENTED_EDGE ( 'NONE', *, *, #128, .F. ) ;
#155 = CYLINDRICAL_SURFACE ( 'NONE', #172, 0.9449999999999939559 ) ;
#156 = CARTESIAN_POINT ( 'NONE',  ( 1.319779946082704535E-13, 0.9999999999999947820, 37.79999999999999716 ) ) ;
#157 = CC_DESIGN_APPROVAL ( #1, ( #167 ) ) ;
#158 = DIRECTION ( 'NONE',  ( 0.0000000000000000000, 1.000000000000000000, 0.0000000000000000000 ) ) ;
#159 = CARTESIAN_POINT ( 'NONE',  ( 1.326762908760390423E-13, -4.653657836759941941E-15, 38.00000000000000000 ) ) ;
#160 = ADVANCED_FACE ( 'NONE', ( #77 ), #177, .F. ) ;
#161 = PERSON_AND_ORGANIZATION_ROLE ( 'creator' ) ;
#162 = PERSON_AND_ORGANIZATION ( #37, #163 ) ;
#163 = ORGANIZATION ( 'UNSPECIFIED', 'UNSPECIFIED', '' ) ;
#164 = CC_DESIGN_PERSON_AND_ORGANIZATION_ASSIGNMENT ( #201, #151, ( #206 ) ) ;
#165 = CIRCLE ( 'NONE', #6, 0.9999999999999970024 ) ;
#166 = PERSON_AND_ORGANIZATION ( #37, #163 ) ;
#167 = PRODUCT_DEFINITION_FORMATION_WITH_SPECIFIED_SOURCE ( 'ANY', '', #200, .NOT_KNOWN. ) ;
#168 = PRODUCT_RELATED_PRODUCT_CATEGORY ( 'detail', '', ( #200 ) ) ;
#169 = EDGE_LOOP ( 'NONE', ( #84 ) ) ;
#170 = CYLINDRICAL_SURFACE ( 'NONE', #44, 0.9999999999999983347 ) ;
#171 = DIRECTION ( 'NONE',  ( -3.491481338843133355E-15, 1.224646799147353207E-16, -1.000000000000000000 ) ) ;
#172 = AXIS2_PLACEMENT_3D ( 'NONE', #97, #210, #3 ) ;
#173 = ADVANCED_FACE ( 'NONE', ( #145 ), #209, .T. ) ;
#174 = FACE_OUTER_BOUND ( 'NONE', #139, .T. ) ;
#175 = DESIGN_CONTEXT ( 'detailed design', #153, 'design' ) ;
#176 = CARTESIAN_POINT ( 'NONE',  ( 4.223038433510814467E-14, -1.481242486602798645E-15, 12.09526279441629626 ) ) ;
#177 = PLANE ( 'NONE',  #86 ) ;
#178 = EDGE_CURVE ( 'NONE', #182, #182, #189, .T. ) ;
#179 = APPROVAL_PERSON_ORGANIZATION ( #83, #1, #220 ) ;
#180 = DIRECTION ( 'NONE',  ( 0.0000000000000000000, 1.000000000000000000, 0.0000000000000000000 ) ) ;
#181 = APPLICATION_PROTOCOL_DEFINITION ( 'international standard', 'config_control_design', 1994, #131 ) ;
#182 = VERTEX_POINT ( 'NONE', #24 ) ;
#183 = CIRCLE ( 'NONE', #45, 0.9449999999999942890 ) ;
#184 = DATE_AND_TIME ( #99, #41 ) ;
#185 = AXIS2_PLACEMENT_3D ( 'NONE', #107, #140, #39 ) ;
#186 = CC_DESIGN_PERSON_AND_ORGANIZATION_ASSIGNMENT ( #46, #203, ( #223 ) ) ;
#187 = AXIS2_PLACEMENT_3D ( 'NONE', #64, #47, #101 ) ;
#188 = CONICAL_SURFACE ( 'NONE', #142, 0.7999999999999996003, 0.7853981633974507215 ) ;
#189 = CIRCLE ( 'NONE', #26, 0.9449999999999942890 ) ;
#190 = ADVANCED_FACE ( 'NONE', ( #197, #43 ), #188, .T. ) ;
#191 = ORIENTED_EDGE ( 'NONE', *, *, #178, .F. ) ;
#192 = DIRECTION ( 'NONE',  ( -3.491481338843133355E-15, 1.224646799147353207E-16, -1.000000000000000000 ) ) ;
#193 = CARTESIAN_POINT ( 'NONE',  ( 4.189777606611760026E-14, 0.9449999999999927347, 12.00000000000000000 ) ) ;
#194 = DIRECTION ( 'NONE',  ( 0.0000000000000000000, 1.000000000000000000, 0.0000000000000000000 ) ) ;
#195 = ADVANCED_FACE ( 'NONE', ( #109 ), #35, .F. ) ;
#196 = DIRECTION ( 'NONE',  ( -4.076042210343383569E-31, -1.000000000000000000, -1.147303886228054695E-16 ) ) ;
#197 = FACE_OUTER_BOUND ( 'NONE', #73, .T. ) ;
#198 = CALENDAR_DATE ( 2021, 7, 10 ) ;
#199 = SECURITY_CLASSIFICATION_LEVEL ( 'unclassified' ) ;
#200 = PRODUCT ( '50657', '50657', '', ( #81 ) ) ;
#201 = PERSON_AND_ORGANIZATION ( #37, #163 ) ;
#202 = ADVANCED_BREP_SHAPE_REPRESENTATION ( '50657', ( #95, #94, #187 ), #112 ) ;
#203 = PERSON_AND_ORGANIZATION_ROLE ( 'classification_officer' ) ;
#204 = EDGE_LOOP ( 'NONE', ( #54 ) ) ;
#205 = AXIS2_PLACEMENT_3D ( 'NONE', #74, #20, #180 ) ;
#206 = PRODUCT_DEFINITION ( 'UNKNOWN', '', #167, #175 ) ;
#207 = ORIENTED_EDGE ( 'NONE', *, *, #117, .T. ) ;
#208 = CC_DESIGN_APPROVAL ( #212, ( #223 ) ) ;
#209 = PLANE ( 'NONE',  #55 ) ;
#210 = DIRECTION ( 'NONE',  ( -3.491481338843133355E-15, 1.224646799147353207E-16, -1.000000000000000000 ) ) ;
#211 = DIRECTION ( 'NONE',  ( 3.491481338843133355E-15, -1.224646799147353207E-16, 1.000000000000000000 ) ) ;
#212 = APPROVAL ( #79, 'UNSPECIFIED' ) ;
#213 = VERTEX_POINT ( 'NONE', #60 ) ;
#214 = DIRECTION ( 'NONE',  ( 3.491481338843133355E-15, -1.224646799147353207E-16, 1.000000000000000000 ) ) ;
#215 = CC_DESIGN_PERSON_AND_ORGANIZATION_ASSIGNMENT ( #113, #161, ( #167 ) ) ;
#216 = AXIS2_PLACEMENT_3D ( 'NONE', #176, #211, #88 ) ;
#217 = COORDINATED_UNIVERSAL_TIME_OFFSET ( 1, 0, .AHEAD. ) ;
#218 = COORDINATED_UNIVERSAL_TIME_OFFSET ( 1, 0, .AHEAD. ) ;
#219 = COORDINATED_UNIVERSAL_TIME_OFFSET ( 1, 0, .AHEAD. ) ;
#220 = APPROVAL_ROLE ( '' ) ;
#221 = EDGE_LOOP ( 'NONE', ( #33 ) ) ;
#222 = ORIENTED_EDGE ( 'NONE', *, *, #132, .T. ) ;
#223 = SECURITY_CLASSIFICATION ( '', '', #199 ) ;
ENDSEC;
END-ISO-10303-21;
