ISO-10303-21;
HEADER;
FILE_DESCRIPTION (( 'STEP AP203' ),
    '1' );
FILE_NAME ('50611.step',
    '2021-10-07T13:48:20',
    ( '' ),
    ( '' ),
    'SwSTEP 2.0',
    'SolidWorks 2019',
    '' );
FILE_SCHEMA (( 'CONFIG_CONTROL_DESIGN' ));
ENDSEC;

DATA;
#1 = AXIS2_PLACEMENT_3D ( 'NONE', #63, #158, #65 ) ;
#2 = CARTESIAN_POINT ( 'NONE',  ( 4.189777606611760026E-14, 6.898895000244480405E-33, 12.00000000000000000 ) ) ;
#3 = ORIENTED_EDGE ( 'NONE', *, *, #120, .F. ) ;
#4 = EDGE_LOOP ( 'NONE', ( #22 ) ) ;
#5 = ADVANCED_FACE ( 'NONE', ( #212 ), #187, .T. ) ;
#6 = LOCAL_TIME ( 15, 48, 20.00000000000000000, #26 ) ;
#7 = DIRECTION ( 'NONE',  ( 4.275831445896958607E-31, 1.000000000000000000, 1.224646799147353207E-16 ) ) ;
#8 = APPROVAL ( #38, 'UNSPECIFIED' ) ;
#9 = ADVANCED_FACE ( 'NONE', ( #191, #14 ), #159, .T. ) ;
#10 = AXIS2_PLACEMENT_3D ( 'NONE', #144, #95, #78 ) ;
#11 = DIRECTION ( 'NONE',  ( -3.491481338843133355E-15, 1.224646799147353207E-16, -1.000000000000000000 ) ) ;
#12 = CARTESIAN_POINT ( 'NONE',  ( 4.189777606611760026E-14, -1.469576158976823947E-15, 12.00000000000000000 ) ) ;
#13 = MANIFOLD_SOLID_BREP ( 'Corps-Déplacer/Copier1[2]', #103 ) ;
#14 = FACE_OUTER_BOUND ( 'NONE', #107, .T. ) ;
#15 = CIRCLE ( 'NONE', #215, 0.9999999999999993339 ) ;
#16 = DIRECTION ( 'NONE',  ( -3.491481338843133355E-15, 1.224646799147353207E-16, -1.000000000000000000 ) ) ;
#17 = EDGE_CURVE ( 'NONE', #98, #98, #69, .T. ) ;
#18 = DATE_AND_TIME ( #169, #180 ) ;
#19 = AXIS2_PLACEMENT_3D ( 'NONE', #217, #93, #83 ) ;
#20 = CC_DESIGN_PERSON_AND_ORGANIZATION_ASSIGNMENT ( #116, #181, ( #167 ) ) ;
#21 = PERSON_AND_ORGANIZATION_ROLE ( 'design_owner' ) ;
#22 = ORIENTED_EDGE ( 'NONE', *, *, #17, .T. ) ;
#23 = MECHANICAL_CONTEXT ( 'NONE', #196, 'mechanical' ) ;
#24 = CC_DESIGN_SECURITY_CLASSIFICATION ( #157, ( #167 ) ) ;
#25 = CARTESIAN_POINT ( 'NONE',  ( 1.326762908760390423E-13, 5.999039130647358587E-33, 38.00000000000000000 ) ) ;
#26 = COORDINATED_UNIVERSAL_TIME_OFFSET ( 1, 0, .AHEAD. ) ;
#27 = AXIS2_PLACEMENT_3D ( 'NONE', #114, #16, #174 ) ;
#28 = CC_DESIGN_PERSON_AND_ORGANIZATION_ASSIGNMENT ( #207, #152, ( #182 ) ) ;
#29 = APPROVAL_PERSON_ORGANIZATION ( #106, #177, #84 ) ;
#30 = CARTESIAN_POINT ( 'NONE',  ( 4.238156991192200727E-14, -1.486545362796422880E-15, 12.13856406460551440 ) ) ;
#31 = FACE_OUTER_BOUND ( 'NONE', #90, .T. ) ;
#32 = VERTEX_POINT ( 'NONE', #216 ) ;
#33 = SECURITY_CLASSIFICATION_LEVEL ( 'unclassified' ) ;
#34 = APPROVAL_STATUS ( 'not_yet_approved' ) ;
#35 = DIRECTION ( 'NONE',  ( 0.0000000000000000000, 0.0000000000000000000, 1.000000000000000000 ) ) ;
#36 = EDGE_LOOP ( 'NONE', ( #154 ) ) ;
#37 = CC_DESIGN_APPROVAL ( #8, ( #157 ) ) ;
#38 = APPROVAL_STATUS ( 'not_yet_approved' ) ;
#39 = EDGE_LOOP ( 'NONE', ( #102 ) ) ;
#40 = APPROVAL_DATE_TIME ( #119, #177 ) ;
#41 = EDGE_LOOP ( 'NONE', ( #137 ) ) ;
#42 = PRODUCT_DEFINITION_SHAPE ( 'NONE', 'NONE',  #182 ) ;
#43 = SHAPE_DEFINITION_REPRESENTATION ( #42, #85 ) ;
#44 = CIRCLE ( 'NONE', #1, 0.9199999999999943778 ) ;
#45 = VERTEX_POINT ( 'NONE', #189 ) ;
#46 =( GEOMETRIC_REPRESENTATION_CONTEXT ( 3 ) GLOBAL_UNCERTAINTY_ASSIGNED_CONTEXT ( ( #163 ) ) GLOBAL_UNIT_ASSIGNED_CONTEXT ( ( #147, #164, #148 ) ) REPRESENTATION_CONTEXT ( 'NONE', 'WORKASPACE' ) );
#47 = DIRECTION ( 'NONE',  ( 0.0000000000000000000, 1.000000000000000000, 0.0000000000000000000 ) ) ;
#48 = FACE_OUTER_BOUND ( 'NONE', #41, .T. ) ;
#49 = FACE_OUTER_BOUND ( 'NONE', #72, .T. ) ;
#50 = CARTESIAN_POINT ( 'NONE',  ( 1.930062147494031140E-15, 0.9199999999999934897, 0.5527917695053575775 ) ) ;
#51 = PERSON_AND_ORGANIZATION ( #131, #175 ) ;
#52 = CC_DESIGN_PERSON_AND_ORGANIZATION_ASSIGNMENT ( #51, #100, ( #167 ) ) ;
#53 = DATE_AND_TIME ( #89, #172 ) ;
#54 = ORIENTED_EDGE ( 'NONE', *, *, #197, .F. ) ;
#55 = PERSON_AND_ORGANIZATION ( #131, #175 ) ;
#56 = AXIS2_PLACEMENT_3D ( 'NONE', #25, #91, #66 ) ;
#57 = COORDINATED_UNIVERSAL_TIME_OFFSET ( 1, 0, .AHEAD. ) ;
#58 = ORIENTED_EDGE ( 'NONE', *, *, #17, .F. ) ;
#59 = DIRECTION ( 'NONE',  ( -4.275831445896958607E-31, -1.000000000000000000, -1.224646799147353207E-16 ) ) ;
#60 = DIRECTION ( 'NONE',  ( 3.491481338843133355E-15, -1.224646799147353207E-16, 1.000000000000000000 ) ) ;
#61 = AXIS2_PLACEMENT_3D ( 'NONE', #139, #115, #162 ) ;
#62 = VERTEX_POINT ( 'NONE', #195 ) ;
#63 = CARTESIAN_POINT ( 'NONE',  ( 4.189777606611760026E-14, -1.469576158976823947E-15, 12.00000000000000000 ) ) ;
#64 = DIRECTION ( 'NONE',  ( 3.491481338843133355E-15, -1.224646799147353207E-16, 1.000000000000000000 ) ) ;
#65 = DIRECTION ( 'NONE',  ( 0.0000000000000000000, 1.000000000000000000, 0.0000000000000000000 ) ) ;
#66 = DIRECTION ( 'NONE',  ( 4.275831445896958607E-31, 1.000000000000000000, 1.224646799147353207E-16 ) ) ;
#67 = APPLICATION_PROTOCOL_DEFINITION ( 'international standard', 'config_control_design', 1994, #94 ) ;
#68 = AXIS2_PLACEMENT_3D ( 'NONE', #219, #113, #7 ) ;
#69 = CIRCLE ( 'NONE', #27, 0.7999999999999996003 ) ;
#70 = APPROVAL_STATUS ( 'not_yet_approved' ) ;
#71 = CALENDAR_DATE ( 2021, 7, 10 ) ;
#72 = EDGE_LOOP ( 'NONE', ( #58 ) ) ;
#73 = EDGE_CURVE ( 'NONE', #203, #203, #201, .T. ) ;
#74 = PRODUCT ( '50611', '50611', '', ( #23 ) ) ;
#75 = DATE_AND_TIME ( #194, #6 ) ;
#76 = EDGE_LOOP ( 'NONE', ( #190 ) ) ;
#77 = CC_DESIGN_APPROVAL ( #188, ( #167 ) ) ;
#78 = DIRECTION ( 'NONE',  ( 4.275831445896958607E-31, 1.000000000000000000, 1.224646799147353207E-16 ) ) ;
#79 = APPROVAL_PERSON_ORGANIZATION ( #183, #8, #104 ) ;
#80 = FACE_OUTER_BOUND ( 'NONE', #105, .T. ) ;
#81 = FACE_OUTER_BOUND ( 'NONE', #39, .T. ) ;
#82 = CC_DESIGN_PERSON_AND_ORGANIZATION_ASSIGNMENT ( #55, #87, ( #157 ) ) ;
#83 = DIRECTION ( 'NONE',  ( 4.186804226928802724E-31, 1.000000000000000000, 1.178480622266860845E-16 ) ) ;
#84 = APPROVAL_ROLE ( '' ) ;
#85 = ADVANCED_BREP_SHAPE_REPRESENTATION ( '50611', ( #86, #13, #186 ), #46 ) ;
#86 = MANIFOLD_SOLID_BREP ( 'Corps-Déplacer/Copier1[1]', #99 ) ;
#87 = PERSON_AND_ORGANIZATION_ROLE ( 'classification_officer' ) ;
#88 = CC_DESIGN_APPROVAL ( #177, ( #182 ) ) ;
#89 = CALENDAR_DATE ( 2021, 7, 10 ) ;
#90 = EDGE_LOOP ( 'NONE', ( #135 ) ) ;
#91 = DIRECTION ( 'NONE',  ( -3.491481338843133355E-15, 1.224646799147353207E-16, -1.000000000000000000 ) ) ;
#92 = ADVANCED_FACE ( 'NONE', ( #81, #31 ), #123, .T. ) ;
#93 = DIRECTION ( 'NONE',  ( -3.491481338843133355E-15, 1.224646799147353207E-16, -1.000000000000000000 ) ) ;
#94 = APPLICATION_CONTEXT ( 'configuration controlled 3d designs of mechanical parts and assemblies' ) ;
#95 = DIRECTION ( 'NONE',  ( -3.491481338843133355E-15, 1.224646799147353207E-16, -1.000000000000000000 ) ) ;
#96 = DIRECTION ( 'NONE',  ( -4.186804226928802724E-31, -1.000000000000000000, -1.178480622266860845E-16 ) ) ;
#97 = DESIGN_CONTEXT ( 'detailed design', #94, 'design' ) ;
#98 = VERTEX_POINT ( 'NONE', #129 ) ;
#99 = CLOSED_SHELL ( 'NONE', ( #110, #125, #9, #143, #200 ) ) ;
#100 = PERSON_AND_ORGANIZATION_ROLE ( 'creator' ) ;
#101 = CALENDAR_DATE ( 2021, 7, 10 ) ;
#102 = ORIENTED_EDGE ( 'NONE', *, *, #73, .F. ) ;
#103 = CLOSED_SHELL ( 'NONE', ( #140, #92, #5 ) ) ;
#104 = APPROVAL_ROLE ( '' ) ;
#105 = EDGE_LOOP ( 'NONE', ( #184 ) ) ;
#106 = PERSON_AND_ORGANIZATION ( #131, #175 ) ;
#107 = EDGE_LOOP ( 'NONE', ( #208 ) ) ;
#108 = EDGE_LOOP ( 'NONE', ( #133 ) ) ;
#109 = CARTESIAN_POINT ( 'NONE',  ( 4.189777606611760026E-14, 6.898895000244480405E-33, 12.00000000000000000 ) ) ;
#110 = ADVANCED_FACE ( 'NONE', ( #156 ), #178, .F. ) ;
#111 = FACE_OUTER_BOUND ( 'NONE', #76, .T. ) ;
#112 = CIRCLE ( 'NONE', #193, 0.9199999999999943778 ) ;
#113 = DIRECTION ( 'NONE',  ( -3.491481338843133355E-15, 1.224646799147353207E-16, -1.000000000000000000 ) ) ;
#114 = CARTESIAN_POINT ( 'NONE',  ( 1.326762908760390423E-13, -4.653657836759941941E-15, 38.00000000000000000 ) ) ;
#115 = DIRECTION ( 'NONE',  ( 3.491481338843133355E-15, -1.224646799147353207E-16, 1.000000000000000000 ) ) ;
#116 = PERSON_AND_ORGANIZATION ( #131, #175 ) ;
#117 = CONICAL_SURFACE ( 'NONE', #218, 0.9199999999999936007, 1.029744258676649871 ) ;
#118 = DATE_AND_TIME ( #101, #155 ) ;
#119 = DATE_AND_TIME ( #71, #127 ) ;
#120 = EDGE_CURVE ( 'NONE', #32, #32, #112, .T. ) ;
#121 = DATE_TIME_ROLE ( 'classification_date' ) ;
#122 = CARTESIAN_POINT ( 'NONE',  ( 4.238156991192200727E-14, 0.9999999999999954481, 12.13856406460551440 ) ) ;
#123 = CYLINDRICAL_SURFACE ( 'NONE', #10, 0.9199999999999939337 ) ;
#124 = DIRECTION ( 'NONE',  ( 3.491481338843133355E-15, -1.224646799147353207E-16, 1.000000000000000000 ) ) ;
#125 = ADVANCED_FACE ( 'NONE', ( #198, #111 ), #149, .T. ) ;
#126 = DIRECTION ( 'NONE',  ( -3.491481338843133355E-15, 1.224646799147353207E-16, -1.000000000000000000 ) ) ;
#127 = LOCAL_TIME ( 15, 48, 20.00000000000000000, #130 ) ;
#128 = CARTESIAN_POINT ( 'NONE',  ( 1.319779946082704535E-13, -4.629164900776995227E-15, 37.79999999999999716 ) ) ;
#129 = CARTESIAN_POINT ( 'NONE',  ( 1.326762908760390423E-13, 0.7999999999999949374, 38.00000000000000000 ) ) ;
#130 = COORDINATED_UNIVERSAL_TIME_OFFSET ( 1, 0, .AHEAD. ) ;
#131 = PERSON ( 'UNSPECIFIED', 'UNSPECIFIED', 'UNSPECIFIED', ('UNSPECIFIED'), ('UNSPECIFIED'), ('UNSPECIFIED') ) ;
#132 = APPROVAL_ROLE ( '' ) ;
#133 = ORIENTED_EDGE ( 'NONE', *, *, #136, .F. ) ;
#134 = CIRCLE ( 'NONE', #141, 0.9999999999999970024 ) ;
#135 = ORIENTED_EDGE ( 'NONE', *, *, #136, .T. ) ;
#136 = EDGE_CURVE ( 'NONE', #62, #62, #44, .T. ) ;
#137 = ORIENTED_EDGE ( 'NONE', *, *, #73, .T. ) ;
#138 = DIRECTION ( 'NONE',  ( 0.0000000000000000000, 1.000000000000000000, 0.0000000000000000000 ) ) ;
#139 = CARTESIAN_POINT ( 'NONE',  ( 4.238156991192200727E-14, -1.486545362796422880E-15, 12.13856406460551440 ) ) ;
#140 = ADVANCED_FACE ( 'NONE', ( #48 ), #117, .T. ) ;
#141 = AXIS2_PLACEMENT_3D ( 'NONE', #30, #202, #138 ) ;
#142 = DIRECTION ( 'NONE',  ( -4.275831445896958607E-31, -1.000000000000000000, -1.224646799147353207E-16 ) ) ;
#143 = ADVANCED_FACE ( 'NONE', ( #80, #220 ), #192, .T. ) ;
#144 = CARTESIAN_POINT ( 'NONE',  ( 0.0000000000000000000, 0.0000000000000000000, 0.0000000000000000000 ) ) ;
#145 = AXIS2_PLACEMENT_3D ( 'NONE', #109, #64, #142 ) ;
#146 = DIRECTION ( 'NONE',  ( 0.0000000000000000000, 1.000000000000000000, 0.0000000000000000000 ) ) ;
#147 =( LENGTH_UNIT ( ) NAMED_UNIT ( * ) SI_UNIT ( .MILLI., .METRE. ) );
#148 =( NAMED_UNIT ( * ) SI_UNIT ( $, .STERADIAN. ) SOLID_ANGLE_UNIT ( ) );
#149 = CONICAL_SURFACE ( 'NONE', #61, 0.9999999999999970024, 0.5235987755982998149 ) ;
#150 = DATE_TIME_ROLE ( 'creation_date' ) ;
#151 = EDGE_LOOP ( 'NONE', ( #54 ) ) ;
#152 = PERSON_AND_ORGANIZATION_ROLE ( 'creator' ) ;
#153 = EDGE_CURVE ( 'NONE', #45, #45, #15, .T. ) ;
#154 = ORIENTED_EDGE ( 'NONE', *, *, #120, .T. ) ;
#155 = LOCAL_TIME ( 15, 48, 20.00000000000000000, #222 ) ;
#156 = FACE_OUTER_BOUND ( 'NONE', #36, .T. ) ;
#157 = SECURITY_CLASSIFICATION ( '', '', #33 ) ;
#158 = DIRECTION ( 'NONE',  ( -3.491481338843133355E-15, 1.224646799147353207E-16, -1.000000000000000000 ) ) ;
#159 = CYLINDRICAL_SURFACE ( 'NONE', #68, 0.9999999999999983347 ) ;
#160 = DIRECTION ( 'NONE',  ( -3.491481338843133355E-15, 1.224646799147353207E-16, -1.000000000000000000 ) ) ;
#161 = APPROVAL_PERSON_ORGANIZATION ( #185, #188, #132 ) ;
#162 = DIRECTION ( 'NONE',  ( 0.0000000000000000000, -1.000000000000000000, 0.0000000000000000000 ) ) ;
#163 = UNCERTAINTY_MEASURE_WITH_UNIT (LENGTH_MEASURE( 1.000000000000000082E-05 ), #147, 'distance_accuracy_value', 'NONE');
#164 =( NAMED_UNIT ( * ) PLANE_ANGLE_UNIT ( ) SI_UNIT ( $, .RADIAN. ) );
#165 = APPROVAL_DATE_TIME ( #18, #188 ) ;
#166 = APPLICATION_PROTOCOL_DEFINITION ( 'international standard', 'config_control_design', 1994, #196 ) ;
#167 = PRODUCT_DEFINITION_FORMATION_WITH_SPECIFIED_SOURCE ( 'ANY', '', #74, .NOT_KNOWN. ) ;
#168 = DIRECTION ( 'NONE',  ( 1.000000000000000000, 0.0000000000000000000, 0.0000000000000000000 ) ) ;
#169 = CALENDAR_DATE ( 2021, 7, 10 ) ;
#170 = PRODUCT_RELATED_PRODUCT_CATEGORY ( 'detail', '', ( #74 ) ) ;
#171 = APPROVAL_DATE_TIME ( #75, #8 ) ;
#172 = LOCAL_TIME ( 15, 48, 20.00000000000000000, #57 ) ;
#173 = CARTESIAN_POINT ( 'NONE',  ( 1.930062147494030746E-15, -6.769746711197374998E-17, 0.5527917695053574665 ) ) ;
#174 = DIRECTION ( 'NONE',  ( 0.0000000000000000000, 1.000000000000000000, 0.0000000000000000000 ) ) ;
#175 = ORGANIZATION ( 'UNSPECIFIED', 'UNSPECIFIED', '' ) ;
#176 = DIRECTION ( 'NONE',  ( 0.0000000000000000000, 1.000000000000000000, 0.0000000000000000000 ) ) ;
#177 = APPROVAL ( #70, 'UNSPECIFIED' ) ;
#178 = PLANE ( 'NONE',  #145 ) ;
#179 = CARTESIAN_POINT ( 'NONE',  ( 1.326762908760390423E-13, -4.653657836759941941E-15, 38.00000000000000000 ) ) ;
#180 = LOCAL_TIME ( 15, 48, 20.00000000000000000, #209 ) ;
#181 = PERSON_AND_ORGANIZATION_ROLE ( 'design_supplier' ) ;
#182 = PRODUCT_DEFINITION ( 'UNKNOWN', '', #167, #97 ) ;
#183 = PERSON_AND_ORGANIZATION ( #131, #175 ) ;
#184 = ORIENTED_EDGE ( 'NONE', *, *, #153, .F. ) ;
#185 = PERSON_AND_ORGANIZATION ( #131, #175 ) ;
#186 = AXIS2_PLACEMENT_3D ( 'NONE', #205, #35, #168 ) ;
#187 = PLANE ( 'NONE',  #211 ) ;
#188 = APPROVAL ( #34, 'UNSPECIFIED' ) ;
#189 = CARTESIAN_POINT ( 'NONE',  ( 1.319779946082704535E-13, 0.9999999999999947820, 37.79999999999999716 ) ) ;
#190 = ORIENTED_EDGE ( 'NONE', *, *, #197, .T. ) ;
#191 = FACE_OUTER_BOUND ( 'NONE', #151, .T. ) ;
#192 = CONICAL_SURFACE ( 'NONE', #223, 0.7999999999999996003, 0.7853981633974507215 ) ;
#193 = AXIS2_PLACEMENT_3D ( 'NONE', #12, #126, #176 ) ;
#194 = CALENDAR_DATE ( 2021, 7, 10 ) ;
#195 = CARTESIAN_POINT ( 'NONE',  ( 4.189777606611760026E-14, 0.9199999999999928235, 12.00000000000000000 ) ) ;
#196 = APPLICATION_CONTEXT ( 'configuration controlled 3d designs of mechanical parts and assemblies' ) ;
#197 = EDGE_CURVE ( 'NONE', #210, #210, #134, .T. ) ;
#198 = FACE_BOUND ( 'NONE', #214, .T. ) ;
#199 = CC_DESIGN_DATE_AND_TIME_ASSIGNMENT ( #53, #150, ( #182 ) ) ;
#200 = ADVANCED_FACE ( 'NONE', ( #49 ), #221, .F. ) ;
#201 = CIRCLE ( 'NONE', #19, 0.9199999999999936007 ) ;
#202 = DIRECTION ( 'NONE',  ( -3.491481338843133355E-15, 1.224646799147353207E-16, -1.000000000000000000 ) ) ;
#203 = VERTEX_POINT ( 'NONE', #50 ) ;
#204 = CC_DESIGN_PERSON_AND_ORGANIZATION_ASSIGNMENT ( #206, #21, ( #74 ) ) ;
#205 = CARTESIAN_POINT ( 'NONE',  ( 0.0000000000000000000, 0.0000000000000000000, 0.0000000000000000000 ) ) ;
#206 = PERSON_AND_ORGANIZATION ( #131, #175 ) ;
#207 = PERSON_AND_ORGANIZATION ( #131, #175 ) ;
#208 = ORIENTED_EDGE ( 'NONE', *, *, #153, .T. ) ;
#209 = COORDINATED_UNIVERSAL_TIME_OFFSET ( 1, 0, .AHEAD. ) ;
#210 = VERTEX_POINT ( 'NONE', #122 ) ;
#211 = AXIS2_PLACEMENT_3D ( 'NONE', #2, #60, #59 ) ;
#212 = FACE_OUTER_BOUND ( 'NONE', #108, .T. ) ;
#213 = CC_DESIGN_DATE_AND_TIME_ASSIGNMENT ( #118, #121, ( #157 ) ) ;
#214 = EDGE_LOOP ( 'NONE', ( #3 ) ) ;
#215 = AXIS2_PLACEMENT_3D ( 'NONE', #128, #160, #146 ) ;
#216 = CARTESIAN_POINT ( 'NONE',  ( 4.189777606611760026E-14, 0.9199999999999928235, 12.00000000000000000 ) ) ;
#217 = CARTESIAN_POINT ( 'NONE',  ( 1.930062147494030746E-15, -6.769746711197374998E-17, 0.5527917695053574665 ) ) ;
#218 = AXIS2_PLACEMENT_3D ( 'NONE', #173, #124, #96 ) ;
#219 = CARTESIAN_POINT ( 'NONE',  ( 0.0000000000000000000, 0.0000000000000000000, 0.0000000000000000000 ) ) ;
#220 = FACE_BOUND ( 'NONE', #4, .T. ) ;
#221 = PLANE ( 'NONE',  #56 ) ;
#222 = COORDINATED_UNIVERSAL_TIME_OFFSET ( 1, 0, .AHEAD. ) ;
#223 = AXIS2_PLACEMENT_3D ( 'NONE', #179, #11, #47 ) ;
ENDSEC;
END-ISO-10303-21;
