ISO-10303-21;
HEADER;
FILE_DESCRIPTION (( 'STEP AP203' ),
    '1' );
FILE_NAME ('50558.step',
    '2021-10-08T05:53:58',
    ( '' ),
    ( '' ),
    'SwSTEP 2.0',
    'SolidWorks 2019',
    '' );
FILE_SCHEMA (( 'CONFIG_CONTROL_DESIGN' ));
ENDSEC;

DATA;
#1 = CALENDAR_DATE ( 2021, 8, 10 ) ;
#2 = AXIS2_PLACEMENT_3D ( 'NONE', #170, #13, #80 ) ;
#3 = ADVANCED_FACE ( 'NONE', ( #45 ), #29, .T. ) ;
#4 = EDGE_LOOP ( 'NONE', ( #167 ) ) ;
#5 = DIRECTION ( 'NONE',  ( 3.491481338843133355E-15, -1.224646799147353207E-16, 1.000000000000000000 ) ) ;
#6 = LOCAL_TIME ( 7, 53, 58.00000000000000000, #139 ) ;
#7 = ADVANCED_FACE ( 'NONE', ( #111, #217 ), #216, .T. ) ;
#8 = DIRECTION ( 'NONE',  ( 0.0000000000000000000, 1.000000000000000000, 0.0000000000000000000 ) ) ;
#9 = EDGE_LOOP ( 'NONE', ( #77 ) ) ;
#10 = ADVANCED_FACE ( 'NONE', ( #108 ), #199, .T. ) ;
#11 = CC_DESIGN_SECURITY_CLASSIFICATION ( #104, ( #136 ) ) ;
#12 = DIRECTION ( 'NONE',  ( 0.0000000000000000000, 1.000000000000000000, 0.0000000000000000000 ) ) ;
#13 = DIRECTION ( 'NONE',  ( -3.491481338843133355E-15, 1.224646799147353207E-16, -1.000000000000000000 ) ) ;
#14 = CARTESIAN_POINT ( 'NONE',  ( 1.280037883690802671E-15, 0.6349999999999988987, 0.3666174209354159386 ) ) ;
#15 = PLANE ( 'NONE',  #186 ) ;
#16 = CLOSED_SHELL ( 'NONE', ( #65, #196, #154, #7, #131 ) ) ;
#17 = CARTESIAN_POINT ( 'NONE',  ( 1.047444401652940007E-13, 4.124339402320052999E-33, 30.00000000000000000 ) ) ;
#18 = PERSON_AND_ORGANIZATION ( #135, #179 ) ;
#19 = CIRCLE ( 'NONE', #93, 0.6350000000000008971 ) ;
#20 = DIRECTION ( 'NONE',  ( 0.0000000000000000000, 0.0000000000000000000, 1.000000000000000000 ) ) ;
#21 = EDGE_CURVE ( 'NONE', #204, #204, #100, .T. ) ;
#22 = APPROVAL_DATE_TIME ( #105, #55 ) ;
#23 = CIRCLE ( 'NONE', #212, 0.6349999999999988987 ) ;
#24 = ORIENTED_EDGE ( 'NONE', *, *, #21, .F. ) ;
#25 = DESIGN_CONTEXT ( 'detailed design', #146, 'design' ) ;
#26 = DIRECTION ( 'NONE',  ( -3.491481338843133355E-15, 1.224646799147353207E-16, -1.000000000000000000 ) ) ;
#27 = DIRECTION ( 'NONE',  ( -3.491481338843133355E-15, 1.224646799147353207E-16, -1.000000000000000000 ) ) ;
#28 = FACE_OUTER_BOUND ( 'NONE', #62, .T. ) ;
#29 = CONICAL_SURFACE ( 'NONE', #171, 0.6349999999999988987, 1.047197551196592746 ) ;
#30 = FACE_OUTER_BOUND ( 'NONE', #181, .T. ) ;
#31 = DIRECTION ( 'NONE',  ( 0.0000000000000000000, 1.000000000000000000, 0.0000000000000000000 ) ) ;
#32 = CARTESIAN_POINT ( 'NONE',  ( 3.561026704177514062E-14, -1.249040029638025724E-15, 10.19918584287041874 ) ) ;
#33 = CC_DESIGN_DATE_AND_TIME_ASSIGNMENT ( #223, #197, ( #104 ) ) ;
#34 = DIRECTION ( 'NONE',  ( -4.275831445896958607E-31, -1.000000000000000000, -1.224646799147353207E-16 ) ) ;
#35 = CIRCLE ( 'NONE', #114, 0.7499999999999998890 ) ;
#36 = DATE_AND_TIME ( #72, #174 ) ;
#37 = APPROVAL_ROLE ( '' ) ;
#38 = CARTESIAN_POINT ( 'NONE',  ( 0.0000000000000000000, 0.0000000000000000000, 0.0000000000000000000 ) ) ;
#39 = UNCERTAINTY_MEASURE_WITH_UNIT (LENGTH_MEASURE( 1.000000000000000082E-05 ), #152, 'distance_accuracy_value', 'NONE');
#40 = APPROVAL_STATUS ( 'not_yet_approved' ) ;
#41 = APPLICATION_PROTOCOL_DEFINITION ( 'international standard', 'config_control_design', 1994, #146 ) ;
#42 = DIRECTION ( 'NONE',  ( 3.491481338843133355E-15, -1.224646799147353207E-16, 1.000000000000000000 ) ) ;
#43 = ORIENTED_EDGE ( 'NONE', *, *, #103, .F. ) ;
#44 = EDGE_LOOP ( 'NONE', ( #94 ) ) ;
#45 = FACE_OUTER_BOUND ( 'NONE', #201, .T. ) ;
#46 = AXIS2_PLACEMENT_3D ( 'NONE', #205, #156, #113 ) ;
#47 = CARTESIAN_POINT ( 'NONE',  ( 3.491481338843133986E-14, -1.224646799147353454E-15, 10.00000000000000178 ) ) ;
#48 = AXIS2_PLACEMENT_3D ( 'NONE', #164, #26, #165 ) ;
#49 = DIRECTION ( 'NONE',  ( -3.491481338843133355E-15, 1.224646799147353207E-16, -1.000000000000000000 ) ) ;
#50 = DIRECTION ( 'NONE',  ( 3.491481338843133355E-15, -1.224646799147353207E-16, 1.000000000000000000 ) ) ;
#51 = CALENDAR_DATE ( 2021, 8, 10 ) ;
#52 = CC_DESIGN_PERSON_AND_ORGANIZATION_ASSIGNMENT ( #142, #141, ( #169 ) ) ;
#53 = APPROVAL_STATUS ( 'not_yet_approved' ) ;
#54 = APPROVAL_DATE_TIME ( #88, #110 ) ;
#55 = APPROVAL ( #53, 'UNSPECIFIED' ) ;
#56 = COORDINATED_UNIVERSAL_TIME_OFFSET ( 1, 0, .AHEAD. ) ;
#57 = PERSON_AND_ORGANIZATION ( #135, #179 ) ;
#58 = AXIS2_PLACEMENT_3D ( 'NONE', #38, #20, #213 ) ;
#59 = ORIENTED_EDGE ( 'NONE', *, *, #147, .F. ) ;
#60 = EDGE_CURVE ( 'NONE', #175, #175, #23, .T. ) ;
#61 = LOCAL_TIME ( 7, 53, 58.00000000000000000, #56 ) ;
#62 = EDGE_LOOP ( 'NONE', ( #182 ) ) ;
#63 = VERTEX_POINT ( 'NONE', #220 ) ;
#64 =( NAMED_UNIT ( * ) PLANE_ANGLE_UNIT ( ) SI_UNIT ( $, .RADIAN. ) );
#65 = ADVANCED_FACE ( 'NONE', ( #99 ), #138, .F. ) ;
#66 =( NAMED_UNIT ( * ) SI_UNIT ( $, .STERADIAN. ) SOLID_ANGLE_UNIT ( ) );
#67 = DIRECTION ( 'NONE',  ( -3.491481338843133355E-15, 1.224646799147353207E-16, -1.000000000000000000 ) ) ;
#68 = APPROVAL_STATUS ( 'not_yet_approved' ) ;
#69 = CIRCLE ( 'NONE', #150, 0.6350000000000008971 ) ;
#70 = CALENDAR_DATE ( 2021, 8, 10 ) ;
#71 = CC_DESIGN_DATE_AND_TIME_ASSIGNMENT ( #36, #87, ( #183 ) ) ;
#72 = CALENDAR_DATE ( 2021, 8, 10 ) ;
#73 = LOCAL_TIME ( 7, 53, 58.00000000000000000, #125 ) ;
#74 = CARTESIAN_POINT ( 'NONE',  ( 1.280037883690802473E-15, -4.489768510602149195E-17, 0.3666174209354158831 ) ) ;
#75 = EDGE_LOOP ( 'NONE', ( #24 ) ) ;
#76 = APPROVAL ( #68, 'UNSPECIFIED' ) ;
#77 = ORIENTED_EDGE ( 'NONE', *, *, #21, .T. ) ;
#78 = APPROVAL_PERSON_ORGANIZATION ( #193, #76, #37 ) ;
#79 = DIRECTION ( 'NONE',  ( -3.491481338843133355E-15, 1.224646799147353207E-16, -1.000000000000000000 ) ) ;
#80 = DIRECTION ( 'NONE',  ( 4.275831445896959482E-31, 1.000000000000000000, 1.224646799147353207E-16 ) ) ;
#81 = CARTESIAN_POINT ( 'NONE',  ( 3.491481338843133986E-14, -2.076806179161253047E-31, 10.00000000000000178 ) ) ;
#82 = AXIS2_PLACEMENT_3D ( 'NONE', #130, #190, #185 ) ;
#83 = DIRECTION ( 'NONE',  ( 3.032960542342109047E-31, 1.000000000000000000, 8.537024980200837349E-17 ) ) ;
#84 = CARTESIAN_POINT ( 'NONE',  ( 3.491481338843133986E-14, 0.6349999999999996758, 10.00000000000000178 ) ) ;
#85 = PERSON_AND_ORGANIZATION_ROLE ( 'creator' ) ;
#86 = CIRCLE ( 'NONE', #82, 0.7499999999999976685 ) ;
#87 = DATE_TIME_ROLE ( 'creation_date' ) ;
#88 = DATE_AND_TIME ( #1, #61 ) ;
#89 = PERSON_AND_ORGANIZATION_ROLE ( 'classification_officer' ) ;
#90 = ORIENTED_EDGE ( 'NONE', *, *, #143, .F. ) ;
#91 = EDGE_LOOP ( 'NONE', ( #92 ) ) ;
#92 = ORIENTED_EDGE ( 'NONE', *, *, #103, .T. ) ;
#93 = AXIS2_PLACEMENT_3D ( 'NONE', #47, #79, #115 ) ;
#94 = ORIENTED_EDGE ( 'NONE', *, *, #60, .F. ) ;
#95 = ORIENTED_EDGE ( 'NONE', *, *, #60, .T. ) ;
#96 = DIRECTION ( 'NONE',  ( -3.491481338843133355E-15, 1.224646799147353207E-16, -1.000000000000000000 ) ) ;
#97 = CYLINDRICAL_SURFACE ( 'NONE', #2, 0.7499999999999986677 ) ;
#98 = VERTEX_POINT ( 'NONE', #218 ) ;
#99 = FACE_OUTER_BOUND ( 'NONE', #128, .T. ) ;
#100 = CIRCLE ( 'NONE', #48, 0.5500000000000000444 ) ;
#101 = CARTESIAN_POINT ( 'NONE',  ( 1.047444401652940007E-13, 0.5499999999999963807, 30.00000000000000000 ) ) ;
#102 = SHAPE_DEFINITION_REPRESENTATION ( #188, #187 ) ;
#103 = EDGE_CURVE ( 'NONE', #151, #151, #19, .T. ) ;
#104 = SECURITY_CLASSIFICATION ( '', '', #119 ) ;
#105 = DATE_AND_TIME ( #70, #73 ) ;
#106 = DIRECTION ( 'NONE',  ( -4.275831445896958607E-31, -1.000000000000000000, -1.224646799147353207E-16 ) ) ;
#107 = CC_DESIGN_APPROVAL ( #76, ( #104 ) ) ;
#108 = FACE_OUTER_BOUND ( 'NONE', #168, .T. ) ;
#109 = CARTESIAN_POINT ( 'NONE',  ( 1.047444401652940007E-13, -3.673940397442059178E-15, 30.00000000000000000 ) ) ;
#110 = APPROVAL ( #40, 'UNSPECIFIED' ) ;
#111 = FACE_OUTER_BOUND ( 'NONE', #112, .T. ) ;
#112 = EDGE_LOOP ( 'NONE', ( #59 ) ) ;
#113 = DIRECTION ( 'NONE',  ( 4.275831445896958607E-31, 1.000000000000000000, 1.224646799147353207E-16 ) ) ;
#114 = AXIS2_PLACEMENT_3D ( 'NONE', #189, #96, #31 ) ;
#115 = DIRECTION ( 'NONE',  ( 0.0000000000000000000, 1.000000000000000000, 0.0000000000000000000 ) ) ;
#116 = FACE_OUTER_BOUND ( 'NONE', #91, .T. ) ;
#117 = AXIS2_PLACEMENT_3D ( 'NONE', #148, #42, #106 ) ;
#118 = DATE_AND_TIME ( #51, #6 ) ;
#119 = SECURITY_CLASSIFICATION_LEVEL ( 'unclassified' ) ;
#120 = ADVANCED_FACE ( 'NONE', ( #184, #116 ), #137, .T. ) ;
#121 = PERSON_AND_ORGANIZATION_ROLE ( 'creator' ) ;
#122 = PERSON_AND_ORGANIZATION ( #135, #179 ) ;
#123 = LOCAL_TIME ( 7, 53, 58.00000000000000000, #161 ) ;
#124 = MANIFOLD_SOLID_BREP ( 'Corps-Déplacer/Copier1[1]', #16 ) ;
#125 = COORDINATED_UNIVERSAL_TIME_OFFSET ( 1, 0, .AHEAD. ) ;
#126 = CONICAL_SURFACE ( 'NONE', #159, 0.7499999999999976685, 0.5235987755982952629 ) ;
#127 = EDGE_CURVE ( 'NONE', #157, #157, #69, .T. ) ;
#128 = EDGE_LOOP ( 'NONE', ( #200 ) ) ;
#129 =( GEOMETRIC_REPRESENTATION_CONTEXT ( 3 ) GLOBAL_UNCERTAINTY_ASSIGNED_CONTEXT ( ( #39 ) ) GLOBAL_UNIT_ASSIGNED_CONTEXT ( ( #152, #64, #66 ) ) REPRESENTATION_CONTEXT ( 'NONE', 'WORKASPACE' ) );
#130 = CARTESIAN_POINT ( 'NONE',  ( 3.561026704177514062E-14, -1.249040029638025724E-15, 10.19918584287041874 ) ) ;
#131 = ADVANCED_FACE ( 'NONE', ( #172 ), #15, .F. ) ;
#132 = APPLICATION_CONTEXT ( 'configuration controlled 3d designs of mechanical parts and assemblies' ) ;
#133 = DIRECTION ( 'NONE',  ( -3.491481338843133355E-15, 1.224646799147353207E-16, -1.000000000000000000 ) ) ;
#134 = CARTESIAN_POINT ( 'NONE',  ( 1.280037883690802473E-15, -4.489768510602149195E-17, 0.3666174209354158831 ) ) ;
#135 = PERSON ( 'UNSPECIFIED', 'UNSPECIFIED', 'UNSPECIFIED', ('UNSPECIFIED'), ('UNSPECIFIED'), ('UNSPECIFIED') ) ;
#136 = PRODUCT_DEFINITION_FORMATION_WITH_SPECIFIED_SOURCE ( 'ANY', '', #169, .NOT_KNOWN. ) ;
#137 = CYLINDRICAL_SURFACE ( 'NONE', #46, 0.6349999999999998979 ) ;
#138 = PLANE ( 'NONE',  #195 ) ;
#139 = COORDINATED_UNIVERSAL_TIME_OFFSET ( 1, 0, .AHEAD. ) ;
#140 = APPROVAL_ROLE ( '' ) ;
#141 = PERSON_AND_ORGANIZATION_ROLE ( 'design_owner' ) ;
#142 = PERSON_AND_ORGANIZATION ( #135, #179 ) ;
#143 = EDGE_CURVE ( 'NONE', #98, #98, #86, .T. ) ;
#144 = PERSON_AND_ORGANIZATION_ROLE ( 'design_supplier' ) ;
#145 = CLOSED_SHELL ( 'NONE', ( #3, #120, #10 ) ) ;
#146 = APPLICATION_CONTEXT ( 'configuration controlled 3d designs of mechanical parts and assemblies' ) ;
#147 = EDGE_CURVE ( 'NONE', #63, #63, #35, .T. ) ;
#148 = CARTESIAN_POINT ( 'NONE',  ( 3.491481338843133986E-14, -2.076806179161253047E-31, 10.00000000000000178 ) ) ;
#149 = DIRECTION ( 'NONE',  ( -3.032960542342109047E-31, -1.000000000000000000, -8.537024980200837349E-17 ) ) ;
#150 = AXIS2_PLACEMENT_3D ( 'NONE', #173, #67, #12 ) ;
#151 = VERTEX_POINT ( 'NONE', #84 ) ;
#152 =( LENGTH_UNIT ( ) NAMED_UNIT ( * ) SI_UNIT ( .MILLI., .METRE. ) );
#153 = FACE_BOUND ( 'NONE', #4, .T. ) ;
#154 = ADVANCED_FACE ( 'NONE', ( #30, #28 ), #97, .T. ) ;
#155 = CC_DESIGN_APPROVAL ( #110, ( #183 ) ) ;
#156 = DIRECTION ( 'NONE',  ( -3.491481338843133355E-15, 1.224646799147353207E-16, -1.000000000000000000 ) ) ;
#157 = VERTEX_POINT ( 'NONE', #222 ) ;
#158 = CC_DESIGN_PERSON_AND_ORGANIZATION_ASSIGNMENT ( #122, #144, ( #136 ) ) ;
#159 = AXIS2_PLACEMENT_3D ( 'NONE', #32, #221, #206 ) ;
#160 = PERSON_AND_ORGANIZATION ( #135, #179 ) ;
#161 = COORDINATED_UNIVERSAL_TIME_OFFSET ( 1, 0, .AHEAD. ) ;
#162 = COORDINATED_UNIVERSAL_TIME_OFFSET ( 1, 0, .AHEAD. ) ;
#163 = CALENDAR_DATE ( 2021, 8, 10 ) ;
#164 = CARTESIAN_POINT ( 'NONE',  ( 1.047444401652940007E-13, -3.673940397442059178E-15, 30.00000000000000000 ) ) ;
#165 = DIRECTION ( 'NONE',  ( 0.0000000000000000000, 1.000000000000000000, 0.0000000000000000000 ) ) ;
#166 = AXIS2_PLACEMENT_3D ( 'NONE', #109, #27, #8 ) ;
#167 = ORIENTED_EDGE ( 'NONE', *, *, #127, .F. ) ;
#168 = EDGE_LOOP ( 'NONE', ( #43 ) ) ;
#169 = PRODUCT ( '50558', '50558', '', ( #177 ) ) ;
#170 = CARTESIAN_POINT ( 'NONE',  ( 0.0000000000000000000, 0.0000000000000000000, 0.0000000000000000000 ) ) ;
#171 = AXIS2_PLACEMENT_3D ( 'NONE', #74, #5, #149 ) ;
#172 = FACE_OUTER_BOUND ( 'NONE', #75, .T. ) ;
#173 = CARTESIAN_POINT ( 'NONE',  ( 3.491481338843133986E-14, -1.224646799147353454E-15, 10.00000000000000178 ) ) ;
#174 = LOCAL_TIME ( 7, 53, 58.00000000000000000, #162 ) ;
#175 = VERTEX_POINT ( 'NONE', #14 ) ;
#176 = APPROVAL_PERSON_ORGANIZATION ( #211, #110, #178 ) ;
#177 = MECHANICAL_CONTEXT ( 'NONE', #132, 'mechanical' ) ;
#178 = APPROVAL_ROLE ( '' ) ;
#179 = ORGANIZATION ( 'UNSPECIFIED', 'UNSPECIFIED', '' ) ;
#180 = PRODUCT_RELATED_PRODUCT_CATEGORY ( 'detail', '', ( #169 ) ) ;
#181 = EDGE_LOOP ( 'NONE', ( #90 ) ) ;
#182 = ORIENTED_EDGE ( 'NONE', *, *, #147, .T. ) ;
#183 = PRODUCT_DEFINITION ( 'UNKNOWN', '', #136, #25 ) ;
#184 = FACE_OUTER_BOUND ( 'NONE', #44, .T. ) ;
#185 = DIRECTION ( 'NONE',  ( 0.0000000000000000000, 1.000000000000000000, 0.0000000000000000000 ) ) ;
#186 = AXIS2_PLACEMENT_3D ( 'NONE', #17, #49, #210 ) ;
#187 = ADVANCED_BREP_SHAPE_REPRESENTATION ( '50558', ( #124, #198, #58 ), #129 ) ;
#188 = PRODUCT_DEFINITION_SHAPE ( 'NONE', 'NONE',  #183 ) ;
#189 = CARTESIAN_POINT ( 'NONE',  ( 1.040461438975253740E-13, -3.649447461459112464E-15, 29.80000000000000071 ) ) ;
#190 = DIRECTION ( 'NONE',  ( -3.491481338843133355E-15, 1.224646799147353207E-16, -1.000000000000000000 ) ) ;
#191 = CC_DESIGN_PERSON_AND_ORGANIZATION_ASSIGNMENT ( #18, #85, ( #183 ) ) ;
#192 = APPROVAL_DATE_TIME ( #118, #76 ) ;
#193 = PERSON_AND_ORGANIZATION ( #135, #179 ) ;
#194 = PERSON_AND_ORGANIZATION ( #135, #179 ) ;
#195 = AXIS2_PLACEMENT_3D ( 'NONE', #81, #50, #34 ) ;
#196 = ADVANCED_FACE ( 'NONE', ( #153, #208 ), #126, .T. ) ;
#197 = DATE_TIME_ROLE ( 'classification_date' ) ;
#198 = MANIFOLD_SOLID_BREP ( 'Corps-Déplacer/Copier1[2]', #145 ) ;
#199 = PLANE ( 'NONE',  #117 ) ;
#200 = ORIENTED_EDGE ( 'NONE', *, *, #127, .T. ) ;
#201 = EDGE_LOOP ( 'NONE', ( #95 ) ) ;
#202 = CC_DESIGN_APPROVAL ( #55, ( #136 ) ) ;
#203 = EDGE_LOOP ( 'NONE', ( #215 ) ) ;
#204 = VERTEX_POINT ( 'NONE', #101 ) ;
#205 = CARTESIAN_POINT ( 'NONE',  ( 0.0000000000000000000, 0.0000000000000000000, 0.0000000000000000000 ) ) ;
#206 = DIRECTION ( 'NONE',  ( 0.0000000000000000000, -1.000000000000000000, 0.0000000000000000000 ) ) ;
#207 = APPROVAL_PERSON_ORGANIZATION ( #57, #55, #140 ) ;
#208 = FACE_OUTER_BOUND ( 'NONE', #203, .T. ) ;
#209 = CC_DESIGN_PERSON_AND_ORGANIZATION_ASSIGNMENT ( #160, #121, ( #136 ) ) ;
#210 = DIRECTION ( 'NONE',  ( 4.275831445896958607E-31, 1.000000000000000000, 1.224646799147353207E-16 ) ) ;
#211 = PERSON_AND_ORGANIZATION ( #135, #179 ) ;
#212 = AXIS2_PLACEMENT_3D ( 'NONE', #134, #133, #83 ) ;
#213 = DIRECTION ( 'NONE',  ( 1.000000000000000000, 0.0000000000000000000, 0.0000000000000000000 ) ) ;
#214 = APPLICATION_PROTOCOL_DEFINITION ( 'international standard', 'config_control_design', 1994, #132 ) ;
#215 = ORIENTED_EDGE ( 'NONE', *, *, #143, .T. ) ;
#216 = CONICAL_SURFACE ( 'NONE', #166, 0.5500000000000000444, 0.7853981633974510546 ) ;
#217 = FACE_BOUND ( 'NONE', #9, .T. ) ;
#218 = CARTESIAN_POINT ( 'NONE',  ( 3.561026704177514062E-14, 0.7499999999999963363, 10.19918584287041874 ) ) ;
#219 = CC_DESIGN_PERSON_AND_ORGANIZATION_ASSIGNMENT ( #194, #89, ( #104 ) ) ;
#220 = CARTESIAN_POINT ( 'NONE',  ( 1.040461438975253740E-13, 0.7499999999999962252, 29.80000000000000071 ) ) ;
#221 = DIRECTION ( 'NONE',  ( 3.491481338843133355E-15, -1.224646799147353207E-16, 1.000000000000000000 ) ) ;
#222 = CARTESIAN_POINT ( 'NONE',  ( 3.491481338843133986E-14, 0.6349999999999996758, 10.00000000000000178 ) ) ;
#223 = DATE_AND_TIME ( #163, #123 ) ;
ENDSEC;
END-ISO-10303-21;
