ISO-10303-21;
HEADER;
FILE_DESCRIPTION (( 'STEP AP203' ),
    '1' );
FILE_NAME ('50548.step',
    '2021-11-10T06:36:11',
    ( '' ),
    ( '' ),
    'SwSTEP 2.0',
    'SolidWorks 2019',
    '' );
FILE_SCHEMA (( 'CONFIG_CONTROL_DESIGN' ));
ENDSEC;

DATA;
#1 = CARTESIAN_POINT ( 'NONE',  ( 1.704519303138777341E-14, 0.0000000000000000000, 4.881937314617159629 ) ) ;
#2 = AXIS2_PLACEMENT_3D ( 'NONE', #19, #72, #143 ) ;
#3 = CARTESIAN_POINT ( 'NONE',  ( 0.7500000000000000000, 0.0000000000000000000, -2.618611004132350016E-15 ) ) ;
#4 = DIRECTION ( 'NONE',  ( -3.491481338843133355E-15, 0.0000000000000000000, -1.000000000000000000 ) ) ;
#5 = APPROVAL_DATE_TIME ( #71, #7 ) ;
#6 = ADVANCED_FACE ( 'NONE', ( #217, #13 ), #98, .T. ) ;
#7 = APPROVAL ( #105, 'UNSPECIFIED' ) ;
#8 = DATE_AND_TIME ( #165, #201 ) ;
#9 = APPROVAL_STATUS ( 'not_yet_approved' ) ;
#10 = CARTESIAN_POINT ( 'NONE',  ( 0.0000000000000000000, 0.0000000000000000000, 0.0000000000000000000 ) ) ;
#11 = AXIS2_PLACEMENT_3D ( 'NONE', #10, #215, #62 ) ;
#12 = DIRECTION ( 'NONE',  ( 1.000000000000000000, 0.0000000000000000000, -3.491481338843133355E-15 ) ) ;
#13 = FACE_OUTER_BOUND ( 'NONE', #28, .T. ) ;
#14 = ADVANCED_FACE ( 'NONE', ( #81, #136 ), #140, .T. ) ;
#15 = VERTEX_POINT ( 'NONE', #38 ) ;
#16 = DATE_TIME_ROLE ( 'creation_date' ) ;
#17 = DIRECTION ( 'NONE',  ( 0.0000000000000000000, 0.0000000000000000000, 1.000000000000000000 ) ) ;
#18 = DIRECTION ( 'NONE',  ( -3.491481338843133355E-15, 1.224646799147353207E-16, -1.000000000000000000 ) ) ;
#19 = CARTESIAN_POINT ( 'NONE',  ( -6.413803915257457113E-31, 2.249659577954772199E-32, -1.836986451539393076E-16 ) ) ;
#20 = AXIS2_PLACEMENT_3D ( 'NONE', #202, #59, #130 ) ;
#21 = DIRECTION ( 'NONE',  ( -3.491481338843133355E-15, 1.224646799147353207E-16, -1.000000000000000000 ) ) ;
#22 = DIRECTION ( 'NONE',  ( -3.491481338843133355E-15, 1.224646799147353207E-16, -1.000000000000000000 ) ) ;
#23 = AXIS2_PLACEMENT_3D ( 'NONE', #104, #195, #37 ) ;
#24 = APPLICATION_CONTEXT ( 'configuration controlled 3d designs of mechanical parts and assemblies' ) ;
#25 = EDGE_LOOP ( 'NONE', ( #44 ) ) ;
#26 = ORIENTED_EDGE ( 'NONE', *, *, #189, .F. ) ;
#27 = EDGE_LOOP ( 'NONE', ( #186 ) ) ;
#28 = EDGE_LOOP ( 'NONE', ( #113 ) ) ;
#29 = CC_DESIGN_PERSON_AND_ORGANIZATION_ASSIGNMENT ( #188, #169, ( #73 ) ) ;
#30 = APPROVAL_PERSON_ORGANIZATION ( #138, #110, #66 ) ;
#31 = DATE_AND_TIME ( #167, #58 ) ;
#32 = DESIGN_CONTEXT ( 'detailed design', #129, 'design' ) ;
#33 = VERTEX_POINT ( 'NONE', #3 ) ;
#34 = DIRECTION ( 'NONE',  ( 0.0000000000000000000, 1.000000000000000000, 0.0000000000000000000 ) ) ;
#35 = CARTESIAN_POINT ( 'NONE',  ( 1.326762908760390423E-13, 8.998558695971069014E-33, 38.00000000000000000 ) ) ;
#36 =( LENGTH_UNIT ( ) NAMED_UNIT ( * ) SI_UNIT ( .MILLI., .METRE. ) );
#37 = DIRECTION ( 'NONE',  ( -4.275831445896958607E-31, -1.000000000000000000, -1.224646799147353207E-16 ) ) ;
#38 = CARTESIAN_POINT ( 'NONE',  ( 0.7500000000000058842, 0.0000000000000000000, 1.499999999999996003 ) ) ;
#39 = FACE_BOUND ( 'NONE', #134, .T. ) ;
#40 = AXIS2_PLACEMENT_3D ( 'NONE', #1, #4, #207 ) ;
#41 = PERSON_AND_ORGANIZATION ( #182, #212 ) ;
#42 = AXIS2_PLACEMENT_3D ( 'NONE', #223, #17, #221 ) ;
#43 = CIRCLE ( 'NONE', #219, 0.7500000000000006661 ) ;
#44 = ORIENTED_EDGE ( 'NONE', *, *, #220, .F. ) ;
#45 = ORIENTED_EDGE ( 'NONE', *, *, #46, .F. ) ;
#46 = EDGE_CURVE ( 'NONE', #33, #33, #79, .T. ) ;
#47 = EDGE_LOOP ( 'NONE', ( #116 ) ) ;
#48 = AXIS2_PLACEMENT_3D ( 'NONE', #152, #216, #166 ) ;
#49 = APPROVAL_DATE_TIME ( #100, #110 ) ;
#50 = ADVANCED_FACE ( 'NONE', ( #93, #97 ), #128, .F. ) ;
#51 = CONICAL_SURFACE ( 'NONE', #109, 1.199999999999998845, 0.7853981633974450594 ) ;
#52 = CARTESIAN_POINT ( 'NONE',  ( 1.316288464743861212E-13, -4.616918432785521081E-15, 37.69999999999999574 ) ) ;
#53 = PERSON_AND_ORGANIZATION_ROLE ( 'design_owner' ) ;
#54 = DIRECTION ( 'NONE',  ( 3.491481338843133355E-15, -0.0000000000000000000, 1.000000000000000000 ) ) ;
#55 = EDGE_CURVE ( 'NONE', #15, #15, #125, .T. ) ;
#56 = PERSON_AND_ORGANIZATION_ROLE ( 'creator' ) ;
#57 = DIRECTION ( 'NONE',  ( -4.275831445896958607E-31, -1.000000000000000000, -1.224646799147353207E-16 ) ) ;
#58 = LOCAL_TIME ( 7, 36, 11.00000000000000000, #94 ) ;
#59 = DIRECTION ( 'NONE',  ( 3.491481338843133355E-15, -0.0000000000000000000, 1.000000000000000000 ) ) ;
#60 = LOCAL_TIME ( 7, 36, 11.00000000000000000, #103 ) ;
#61 = ORIENTED_EDGE ( 'NONE', *, *, #163, .T. ) ;
#62 = DIRECTION ( 'NONE',  ( 1.000000000000000000, 0.0000000000000000000, -3.491481338843133355E-15 ) ) ;
#63 = CARTESIAN_POINT ( 'NONE',  ( 5.237222008264694511E-15, 0.0000000000000000000, 1.499999999999998446 ) ) ;
#64 = DATE_AND_TIME ( #209, #159 ) ;
#65 = PRODUCT_RELATED_PRODUCT_CATEGORY ( 'detail', '', ( #74 ) ) ;
#66 = APPROVAL_ROLE ( '' ) ;
#67 = PRODUCT_DEFINITION_FORMATION_WITH_SPECIFIED_SOURCE ( 'ANY', '', #74, .NOT_KNOWN. ) ;
#68 = DIRECTION ( 'NONE',  ( 4.275831445896958607E-31, 1.000000000000000000, 1.224646799147353207E-16 ) ) ;
#69 = CC_DESIGN_PERSON_AND_ORGANIZATION_ASSIGNMENT ( #144, #56, ( #126 ) ) ;
#70 = MANIFOLD_SOLID_BREP ( 'Corps-Déplacer/Copier1[2]', #181 ) ;
#71 = DATE_AND_TIME ( #174, #60 ) ;
#72 = DIRECTION ( 'NONE',  ( 3.491481338843133355E-15, -1.224646799147353207E-16, 1.000000000000000000 ) ) ;
#73 = SECURITY_CLASSIFICATION ( '', '', #133 ) ;
#74 = PRODUCT ( '50548', '50548', '', ( #118 ) ) ;
#75 = CC_DESIGN_DATE_AND_TIME_ASSIGNMENT ( #31, #171, ( #73 ) ) ;
#76 = EDGE_LOOP ( 'NONE', ( #45 ) ) ;
#77 = SHAPE_DEFINITION_REPRESENTATION ( #199, #210 ) ;
#78 = APPROVAL_ROLE ( '' ) ;
#79 = CIRCLE ( 'NONE', #20, 0.7500000000000000000 ) ;
#80 = ORIENTED_EDGE ( 'NONE', *, *, #220, .T. ) ;
#81 = FACE_OUTER_BOUND ( 'NONE', #213, .T. ) ;
#82 = UNCERTAINTY_MEASURE_WITH_UNIT (LENGTH_MEASURE( 1.000000000000000082E-05 ), #36, 'distance_accuracy_value', 'NONE');
#83 = CIRCLE ( 'NONE', #40, 1.499999999999996447 ) ;
#84 = CARTESIAN_POINT ( 'NONE',  ( -1.499999999999979128, 0.0000000000000000000, 4.881937314617164958 ) ) ;
#85 = PERSON_AND_ORGANIZATION ( #182, #212 ) ;
#86 = CC_DESIGN_PERSON_AND_ORGANIZATION_ASSIGNMENT ( #85, #153, ( #67 ) ) ;
#87 = DIRECTION ( 'NONE',  ( -3.491481338843133355E-15, 1.224646799147353207E-16, -1.000000000000000000 ) ) ;
#88 = CC_DESIGN_APPROVAL ( #191, ( #73 ) ) ;
#89 = FACE_OUTER_BOUND ( 'NONE', #111, .T. ) ;
#90 = DIRECTION ( 'NONE',  ( 0.0000000000000000000, 1.000000000000000000, 0.0000000000000000000 ) ) ;
#91 = CC_DESIGN_PERSON_AND_ORGANIZATION_ASSIGNMENT ( #117, #172, ( #67 ) ) ;
#92 = COORDINATED_UNIVERSAL_TIME_OFFSET ( 1, 0, .AHEAD. ) ;
#93 = FACE_OUTER_BOUND ( 'NONE', #168, .T. ) ;
#94 = COORDINATED_UNIVERSAL_TIME_OFFSET ( 1, 0, .AHEAD. ) ;
#95 = ORIENTED_EDGE ( 'NONE', *, *, #46, .T. ) ;
#96 = CC_DESIGN_APPROVAL ( #110, ( #67 ) ) ;
#97 = FACE_OUTER_BOUND ( 'NONE', #47, .T. ) ;
#98 = CYLINDRICAL_SURFACE ( 'NONE', #11, 0.7500000000000003331 ) ;
#99 = APPROVAL_PERSON_ORGANIZATION ( #41, #7, #192 ) ;
#100 = DATE_AND_TIME ( #194, #198 ) ;
#101 = VERTEX_POINT ( 'NONE', #204 ) ;
#102 = DIRECTION ( 'NONE',  ( 1.000000000000000000, 0.0000000000000000000, -3.469446951953611033E-15 ) ) ;
#103 = COORDINATED_UNIVERSAL_TIME_OFFSET ( 1, 0, .AHEAD. ) ;
#104 = CARTESIAN_POINT ( 'NONE',  ( 5.237222008264700033E-15, -2.168404344971014538E-16, 1.500000000000000000 ) ) ;
#105 = APPROVAL_STATUS ( 'not_yet_approved' ) ;
#106 = CARTESIAN_POINT ( 'NONE',  ( 1.326762908760390423E-13, -4.653657836759941941E-15, 38.00000000000000000 ) ) ;
#107 = VERTEX_POINT ( 'NONE', #84 ) ;
#108 = EDGE_CURVE ( 'NONE', #222, #222, #43, .T. ) ;
#109 = AXIS2_PLACEMENT_3D ( 'NONE', #106, #22, #90 ) ;
#110 = APPROVAL ( #122, 'UNSPECIFIED' ) ;
#111 = EDGE_LOOP ( 'NONE', ( #154 ) ) ;
#112 = CLOSED_SHELL ( 'NONE', ( #14, #211, #149, #50, #127 ) ) ;
#113 = ORIENTED_EDGE ( 'NONE', *, *, #108, .F. ) ;
#114 = PERSON_AND_ORGANIZATION ( #182, #212 ) ;
#115 = CIRCLE ( 'NONE', #131, 1.499999999999998446 ) ;
#116 = ORIENTED_EDGE ( 'NONE', *, *, #189, .T. ) ;
#117 = PERSON_AND_ORGANIZATION ( #182, #212 ) ;
#118 = MECHANICAL_CONTEXT ( 'NONE', #24, 'mechanical' ) ;
#119 = PLANE ( 'NONE',  #137 ) ;
#120 = APPLICATION_PROTOCOL_DEFINITION ( 'international standard', 'config_control_design', 1994, #129 ) ;
#121 = FACE_OUTER_BOUND ( 'NONE', #27, .T. ) ;
#122 = APPROVAL_STATUS ( 'not_yet_approved' ) ;
#123 = FACE_OUTER_BOUND ( 'NONE', #76, .T. ) ;
#124 =( NAMED_UNIT ( * ) SI_UNIT ( $, .STERADIAN. ) SOLID_ANGLE_UNIT ( ) );
#125 = CIRCLE ( 'NONE', #48, 0.7500000000000006661 ) ;
#126 = PRODUCT_DEFINITION ( 'UNKNOWN', '', #67, #32 ) ;
#127 = ADVANCED_FACE ( 'NONE', ( #89 ), #119, .F. ) ;
#128 = TOROIDAL_SURFACE ( 'NONE', #179, 8.750000000000000000, 8.000000000000000000 ) ;
#129 = APPLICATION_CONTEXT ( 'configuration controlled 3d designs of mechanical parts and assemblies' ) ;
#130 = DIRECTION ( 'NONE',  ( 1.000000000000000000, 0.0000000000000000000, -3.491481338843133355E-15 ) ) ;
#131 = AXIS2_PLACEMENT_3D ( 'NONE', #52, #21, #34 ) ;
#132 = ORIENTED_EDGE ( 'NONE', *, *, #55, .T. ) ;
#133 = SECURITY_CLASSIFICATION_LEVEL ( 'unclassified' ) ;
#134 = EDGE_LOOP ( 'NONE', ( #61 ) ) ;
#135 = CC_DESIGN_PERSON_AND_ORGANIZATION_ASSIGNMENT ( #142, #53, ( #74 ) ) ;
#136 = FACE_OUTER_BOUND ( 'NONE', #180, .T. ) ;
#137 = AXIS2_PLACEMENT_3D ( 'NONE', #161, #145, #57 ) ;
#138 = PERSON_AND_ORGANIZATION ( #182, #212 ) ;
#139 = VERTEX_POINT ( 'NONE', #160 ) ;
#140 = CYLINDRICAL_SURFACE ( 'NONE', #150, 1.499999999999996447 ) ;
#141 =( GEOMETRIC_REPRESENTATION_CONTEXT ( 3 ) GLOBAL_UNCERTAINTY_ASSIGNED_CONTEXT ( ( #82 ) ) GLOBAL_UNIT_ASSIGNED_CONTEXT ( ( #36, #156, #124 ) ) REPRESENTATION_CONTEXT ( 'NONE', 'WORKASPACE' ) );
#142 = PERSON_AND_ORGANIZATION ( #182, #212 ) ;
#143 = DIRECTION ( 'NONE',  ( -4.275831445896958607E-31, -1.000000000000000000, -1.224646799147353207E-16 ) ) ;
#144 = PERSON_AND_ORGANIZATION ( #182, #212 ) ;
#145 = DIRECTION ( 'NONE',  ( 3.491481338843133355E-15, -1.224646799147353207E-16, 1.000000000000000000 ) ) ;
#146 = APPROVAL_PERSON_ORGANIZATION ( #114, #191, #78 ) ;
#147 = MANIFOLD_SOLID_BREP ( 'Corps-Déplacer/Copier1[1]', #112 ) ;
#148 = EDGE_LOOP ( 'NONE', ( #95 ) ) ;
#149 = ADVANCED_FACE ( 'NONE', ( #190 ), #178, .F. ) ;
#150 = AXIS2_PLACEMENT_3D ( 'NONE', #214, #184, #205 ) ;
#151 = CC_DESIGN_DATE_AND_TIME_ASSIGNMENT ( #64, #16, ( #126 ) ) ;
#152 = CARTESIAN_POINT ( 'NONE',  ( 5.237222008264694511E-15, 0.0000000000000000000, 1.499999999999998446 ) ) ;
#153 = PERSON_AND_ORGANIZATION_ROLE ( 'design_supplier' ) ;
#154 = ORIENTED_EDGE ( 'NONE', *, *, #55, .F. ) ;
#155 = CC_DESIGN_APPROVAL ( #7, ( #126 ) ) ;
#156 =( NAMED_UNIT ( * ) PLANE_ANGLE_UNIT ( ) SI_UNIT ( $, .RADIAN. ) );
#157 = APPLICATION_PROTOCOL_DEFINITION ( 'international standard', 'config_control_design', 1994, #24 ) ;
#158 = DIRECTION ( 'NONE',  ( 0.0000000000000000000, 1.000000000000000000, 0.0000000000000000000 ) ) ;
#159 = LOCAL_TIME ( 7, 36, 11.00000000000000000, #177 ) ;
#160 = CARTESIAN_POINT ( 'NONE',  ( 1.316288464743861212E-13, 1.499999999999994005, 37.69999999999999574 ) ) ;
#161 = CARTESIAN_POINT ( 'NONE',  ( 5.237222008264700033E-15, -2.168404344971014538E-16, 1.500000000000000000 ) ) ;
#162 = ADVANCED_FACE ( 'NONE', ( #123 ), #173, .F. ) ;
#163 = EDGE_CURVE ( 'NONE', #101, #101, #206, .T. ) ;
#164 = AXIS2_PLACEMENT_3D ( 'NONE', #193, #18, #158 ) ;
#165 = CALENDAR_DATE ( 2021, 10, 11 ) ;
#166 = DIRECTION ( 'NONE',  ( 1.000000000000000000, 0.0000000000000000000, -3.469446951953611033E-15 ) ) ;
#167 = CALENDAR_DATE ( 2021, 10, 11 ) ;
#168 = EDGE_LOOP ( 'NONE', ( #132 ) ) ;
#169 = PERSON_AND_ORGANIZATION_ROLE ( 'classification_officer' ) ;
#170 = DIRECTION ( 'NONE',  ( 3.491481338843133355E-15, -0.0000000000000000000, 1.000000000000000000 ) ) ;
#171 = DATE_TIME_ROLE ( 'classification_date' ) ;
#172 = PERSON_AND_ORGANIZATION_ROLE ( 'creator' ) ;
#173 = PLANE ( 'NONE',  #2 ) ;
#174 = CALENDAR_DATE ( 2021, 10, 11 ) ;
#175 = FACE_OUTER_BOUND ( 'NONE', #25, .T. ) ;
#176 = AXIS2_PLACEMENT_3D ( 'NONE', #35, #87, #68 ) ;
#177 = COORDINATED_UNIVERSAL_TIME_OFFSET ( 1, 0, .AHEAD. ) ;
#178 = PLANE ( 'NONE',  #176 ) ;
#179 = AXIS2_PLACEMENT_3D ( 'NONE', #183, #170, #12 ) ;
#180 = EDGE_LOOP ( 'NONE', ( #26 ) ) ;
#181 = CLOSED_SHELL ( 'NONE', ( #197, #6, #162 ) ) ;
#182 = PERSON ( 'UNSPECIFIED', 'UNSPECIFIED', 'UNSPECIFIED', ('UNSPECIFIED'), ('UNSPECIFIED'), ('UNSPECIFIED') ) ;
#183 = CARTESIAN_POINT ( 'NONE',  ( 5.237222008264698455E-15, 0.0000000000000000000, 1.499999999999999556 ) ) ;
#184 = DIRECTION ( 'NONE',  ( -3.491481338843133355E-15, 1.224646799147353207E-16, -1.000000000000000000 ) ) ;
#185 = APPROVAL_DATE_TIME ( #8, #191 ) ;
#186 = ORIENTED_EDGE ( 'NONE', *, *, #108, .T. ) ;
#187 = ORIENTED_EDGE ( 'NONE', *, *, #163, .F. ) ;
#188 = PERSON_AND_ORGANIZATION ( #182, #212 ) ;
#189 = EDGE_CURVE ( 'NONE', #107, #107, #83, .T. ) ;
#190 = FACE_OUTER_BOUND ( 'NONE', #200, .T. ) ;
#191 = APPROVAL ( #9, 'UNSPECIFIED' ) ;
#192 = APPROVAL_ROLE ( '' ) ;
#193 = CARTESIAN_POINT ( 'NONE',  ( 1.326762908760390423E-13, -4.653657836759941941E-15, 38.00000000000000000 ) ) ;
#194 = CALENDAR_DATE ( 2021, 10, 11 ) ;
#195 = DIRECTION ( 'NONE',  ( 3.491481338843133355E-15, -1.224646799147353207E-16, 1.000000000000000000 ) ) ;
#196 = CARTESIAN_POINT ( 'NONE',  ( 0.7500000000000058842, 0.0000000000000000000, 1.499999999999996003 ) ) ;
#197 = ADVANCED_FACE ( 'NONE', ( #121 ), #208, .T. ) ;
#198 = LOCAL_TIME ( 7, 36, 11.00000000000000000, #203 ) ;
#199 = PRODUCT_DEFINITION_SHAPE ( 'NONE', 'NONE',  #126 ) ;
#200 = EDGE_LOOP ( 'NONE', ( #187 ) ) ;
#201 = LOCAL_TIME ( 7, 36, 11.00000000000000000, #92 ) ;
#202 = CARTESIAN_POINT ( 'NONE',  ( 0.0000000000000000000, 0.0000000000000000000, 0.0000000000000000000 ) ) ;
#203 = COORDINATED_UNIVERSAL_TIME_OFFSET ( 1, 0, .AHEAD. ) ;
#204 = CARTESIAN_POINT ( 'NONE',  ( 1.326762908760390423E-13, 1.199999999999994182, 38.00000000000000000 ) ) ;
#205 = DIRECTION ( 'NONE',  ( 4.275831445896958607E-31, 1.000000000000000000, 1.224646799147352961E-16 ) ) ;
#206 = CIRCLE ( 'NONE', #164, 1.199999999999998845 ) ;
#207 = DIRECTION ( 'NONE',  ( -1.000000000000000000, 0.0000000000000000000, 3.469446951953622472E-15 ) ) ;
#208 = PLANE ( 'NONE',  #23 ) ;
#209 = CALENDAR_DATE ( 2021, 10, 11 ) ;
#210 = ADVANCED_BREP_SHAPE_REPRESENTATION ( '50548', ( #147, #70, #42 ), #141 ) ;
#211 = ADVANCED_FACE ( 'NONE', ( #175, #39 ), #51, .T. ) ;
#212 = ORGANIZATION ( 'UNSPECIFIED', 'UNSPECIFIED', '' ) ;
#213 = EDGE_LOOP ( 'NONE', ( #80 ) ) ;
#214 = CARTESIAN_POINT ( 'NONE',  ( 0.0000000000000000000, 0.0000000000000000000, 0.0000000000000000000 ) ) ;
#215 = DIRECTION ( 'NONE',  ( 3.491481338843133355E-15, -0.0000000000000000000, 1.000000000000000000 ) ) ;
#216 = DIRECTION ( 'NONE',  ( 3.491481338843133355E-15, -0.0000000000000000000, 1.000000000000000000 ) ) ;
#217 = FACE_OUTER_BOUND ( 'NONE', #148, .T. ) ;
#218 = CC_DESIGN_SECURITY_CLASSIFICATION ( #73, ( #67 ) ) ;
#219 = AXIS2_PLACEMENT_3D ( 'NONE', #63, #54, #102 ) ;
#220 = EDGE_CURVE ( 'NONE', #139, #139, #115, .T. ) ;
#221 = DIRECTION ( 'NONE',  ( 1.000000000000000000, 0.0000000000000000000, 0.0000000000000000000 ) ) ;
#222 = VERTEX_POINT ( 'NONE', #196 ) ;
#223 = CARTESIAN_POINT ( 'NONE',  ( 0.0000000000000000000, 0.0000000000000000000, 0.0000000000000000000 ) ) ;
ENDSEC;
END-ISO-10303-21;
