ISO-10303-21;
HEADER;
FILE_DESCRIPTION (( 'STEP AP203' ),
    '1' );
FILE_NAME ('50331.step',
    '2021-09-03T07:22:40',
    ( '' ),
    ( '' ),
    'SwSTEP 2.0',
    'SolidWorks 2019',
    '' );
FILE_SCHEMA (( 'CONFIG_CONTROL_DESIGN' ));
ENDSEC;

DATA;
#1 = DIRECTION ( 'NONE',  ( 4.275831445896958607E-31, 1.000000000000000000, 1.224646799147353207E-16 ) ) ;
#2 = EDGE_CURVE ( 'NONE', #117, #92, #187, .T. ) ;
#3 = AXIS2_PLACEMENT_3D ( 'NONE', #16, #201, #228 ) ;
#4 = DIRECTION ( 'NONE',  ( -3.491481338843133355E-15, 1.224646799147353207E-16, -1.000000000000000000 ) ) ;
#5 = ORIENTED_EDGE ( 'NONE', *, *, #308, .F. ) ;
#6 = CARTESIAN_POINT ( 'NONE',  ( 5.170350292128166269E-14, -3.899999999999999911, 27.00000000000000000 ) ) ;
#7 = CARTESIAN_POINT ( 'NONE',  ( 1.841295306748161453E-13, -3.900000000000011902, 78.20000000000000284 ) ) ;
#8 = ORIENTED_EDGE ( 'NONE', *, *, #165, .T. ) ;
#9 = ORIENTED_EDGE ( 'NONE', *, *, #26, .T. ) ;
#10 = DIRECTION ( 'NONE',  ( 1.798245827342160317E-15, -0.8571673007021098911, 0.5150380749100582634 ) ) ;
#11 = CARTESIAN_POINT ( 'NONE',  ( 2.758270257686075477E-13, 3.099999999999992983, 79.00000000000000000 ) ) ;
#12 = ORIENTED_EDGE ( 'NONE', *, *, #212, .F. ) ;
#13 = DIRECTION ( 'NONE',  ( 0.0000000000000000000, 1.000000000000000000, 0.0000000000000000000 ) ) ;
#14 = CC_DESIGN_PERSON_AND_ORGANIZATION_ASSIGNMENT ( #225, #207, ( #326 ) ) ;
#15 = APPROVAL_PERSON_ORGANIZATION ( #75, #77, #275 ) ;
#16 = CARTESIAN_POINT ( 'NONE',  ( 8.181785190463869195E-15, -2.869783931920642451E-16, 2.343356414207506955 ) ) ;
#17 = ORIENTED_EDGE ( 'NONE', *, *, #331, .T. ) ;
#18 = DIRECTION ( 'NONE',  ( 0.0000000000000000000, 0.0000000000000000000, 1.000000000000000000 ) ) ;
#19 = APPROVAL_DATE_TIME ( #223, #77 ) ;
#20 = ORGANIZATION ( 'UNSPECIFIED', 'UNSPECIFIED', '' ) ;
#21 =( NAMED_UNIT ( * ) PLANE_ANGLE_UNIT ( ) SI_UNIT ( $, .RADIAN. ) );
#22 = DIRECTION ( 'NONE',  ( -3.491481338843133355E-15, 1.224646799147353207E-16, -1.000000000000000000 ) ) ;
#23 = VERTEX_POINT ( 'NONE', #156 ) ;
#24 = ORIENTED_EDGE ( 'NONE', *, *, #2, .F. ) ;
#25 = ORIENTED_EDGE ( 'NONE', *, *, #94, .F. ) ;
#26 = EDGE_CURVE ( 'NONE', #218, #276, #130, .T. ) ;
#27 = AXIS2_PLACEMENT_3D ( 'NONE', #85, #113, #119 ) ;
#28 = ORIENTED_EDGE ( 'NONE', *, *, #31, .F. ) ;
#29 = FACE_OUTER_BOUND ( 'NONE', #151, .T. ) ;
#30 = EDGE_LOOP ( 'NONE', ( #5, #234 ) ) ;
#31 = EDGE_CURVE ( 'NONE', #195, #65, #226, .T. ) ;
#32 = FACE_OUTER_BOUND ( 'NONE', #257, .T. ) ;
#33 = AXIS2_PLACEMENT_3D ( 'NONE', #124, #199, #174 ) ;
#34 = VECTOR ( 'NONE', #10, 1000.000000000000000 ) ;
#35 = LINE ( 'NONE', #11, #324 ) ;
#36 = AXIS2_PLACEMENT_3D ( 'NONE', #95, #216, #196 ) ;
#37 = EDGE_LOOP ( 'NONE', ( #79, #185, #17 ) ) ;
#38 = EDGE_LOOP ( 'NONE', ( #327, #45, #24, #250 ) ) ;
#39 = DIRECTION ( 'NONE',  ( -3.491481338843133355E-15, 1.224646799147353207E-16, -1.000000000000000000 ) ) ;
#40 = EDGE_CURVE ( 'NONE', #58, #23, #153, .T. ) ;
#41 = FACE_OUTER_BOUND ( 'NONE', #241, .T. ) ;
#42 = VERTEX_POINT ( 'NONE', #141 ) ;
#43 = FACE_OUTER_BOUND ( 'NONE', #306, .T. ) ;
#44 = LOCAL_TIME ( 9, 22, 40.00000000000000000, #332 ) ;
#45 = ORIENTED_EDGE ( 'NONE', *, *, #180, .T. ) ;
#46 = DIRECTION ( 'NONE',  ( -3.950625526948183093E-31, -1.000000000000000000, -1.112002228190262924E-16 ) ) ;
#47 = CARTESIAN_POINT ( 'NONE',  ( 1.667574263899813664E-30, 3.899999999999999467, 4.776122516674677286E-16 ) ) ;
#48 = CLOSED_SHELL ( 'NONE', ( #205, #133, #210, #114, #118, #168 ) ) ;
#49 = CIRCLE ( 'NONE', #147, 3.899999999999993250 ) ;
#50 = APPROVAL_DATE_TIME ( #107, #322 ) ;
#51 = CC_DESIGN_PERSON_AND_ORGANIZATION_ASSIGNMENT ( #258, #192, ( #307 ) ) ;
#52 = DIRECTION ( 'NONE',  ( -3.491481338843133355E-15, 1.224646799147353207E-16, -1.000000000000000000 ) ) ;
#53 = EDGE_LOOP ( 'NONE', ( #28, #264, #318, #115 ) ) ;
#54 = MANIFOLD_SOLID_BREP ( 'Corps-Déplacer/Copier1[2]', #73 ) ;
#55 = AXIS2_PLACEMENT_3D ( 'NONE', #245, #221, #46 ) ;
#56 = APPROVAL_STATUS ( 'not_yet_approved' ) ;
#57 = CARTESIAN_POINT ( 'NONE',  ( 2.762066662763431736E-13, -3.100000000000012079, 79.00000000000000000 ) ) ;
#58 = VERTEX_POINT ( 'NONE', #200 ) ;
#59 = SHAPE_DEFINITION_REPRESENTATION ( #186, #182 ) ;
#60 = FACE_OUTER_BOUND ( 'NONE', #38, .T. ) ;
#61 = MANIFOLD_SOLID_BREP ( 'Corps-Déplacer/Copier1[1]', #48 ) ;
#62 = CARTESIAN_POINT ( 'NONE',  ( 4.776122516674660523E-16, -3.899999999999999467, -4.776122516674693063E-16 ) ) ;
#63 = VECTOR ( 'NONE', #128, 1000.000000000000000 ) ;
#64 = VECTOR ( 'NONE', #188, 999.9999999999998863 ) ;
#65 = VERTEX_POINT ( 'NONE', #224 ) ;
#66 = DIRECTION ( 'NONE',  ( -3.491481338843133355E-15, 1.224646799147353207E-16, -1.000000000000000000 ) ) ;
#67 = AXIS2_PLACEMENT_3D ( 'NONE', #270, #89, #317 ) ;
#68 = CYLINDRICAL_SURFACE ( 'NONE', #96, 3.899999999999999467 ) ;
#69 = FACE_OUTER_BOUND ( 'NONE', #148, .T. ) ;
#70 = VERTEX_POINT ( 'NONE', #160 ) ;
#71 =( LENGTH_UNIT ( ) NAMED_UNIT ( * ) SI_UNIT ( .MILLI., .METRE. ) );
#72 = MECHANICAL_CONTEXT ( 'NONE', #132, 'mechanical' ) ;
#73 = CLOSED_SHELL ( 'NONE', ( #248, #320, #296, #191, #90 ) ) ;
#74 = VECTOR ( 'NONE', #88, 1000.000000000000000 ) ;
#75 = PERSON_AND_ORGANIZATION ( #229, #20 ) ;
#76 = APPROVAL_STATUS ( 'not_yet_approved' ) ;
#77 = APPROVAL ( #183, 'UNSPECIFIED' ) ;
#78 = CIRCLE ( 'NONE', #83, 3.899999999999996358 ) ;
#79 = ORIENTED_EDGE ( 'NONE', *, *, #104, .F. ) ;
#80 = PERSON_AND_ORGANIZATION ( #229, #20 ) ;
#81 = CARTESIAN_POINT ( 'NONE',  ( 9.426999614876460059E-14, -3.306546357697853733E-15, 27.00000000000000000 ) ) ;
#82 = CARTESIAN_POINT ( 'NONE',  ( 9.426999614876460059E-14, -3.306546357697853733E-15, 27.00000000000000000 ) ) ;
#83 = AXIS2_PLACEMENT_3D ( 'NONE', #81, #112, #120 ) ;
#84 = CARTESIAN_POINT ( 'NONE',  ( 8.659397442131338797E-15, 3.899999999999992806, 2.343356414207507399 ) ) ;
#85 = CARTESIAN_POINT ( 'NONE',  ( 9.426999614876460059E-14, -3.306546357697853733E-15, 27.00000000000000000 ) ) ;
#86 = CALENDAR_DATE ( 2021, 3, 9 ) ;
#87 = PRODUCT ( '50331', '50331', '', ( #72 ) ) ;
#88 = DIRECTION ( 'NONE',  ( -3.491481338843133355E-15, 1.224646799147353207E-16, -1.000000000000000000 ) ) ;
#89 = DIRECTION ( 'NONE',  ( 3.491481338843133355E-15, -1.224646799147353207E-16, 1.000000000000000000 ) ) ;
#90 = ADVANCED_FACE ( 'NONE', ( #230 ), #293, .T. ) ;
#91 = AXIS2_PLACEMENT_3D ( 'NONE', #281, #39, #137 ) ;
#92 = VERTEX_POINT ( 'NONE', #7 ) ;
#93 = CYLINDRICAL_SURFACE ( 'NONE', #91, 3.899999999999994582 ) ;
#94 = EDGE_CURVE ( 'NONE', #23, #58, #134, .T. ) ;
#95 = CARTESIAN_POINT ( 'NONE',  ( 0.0000000000000000000, 0.0000000000000000000, 0.0000000000000000000 ) ) ;
#96 = AXIS2_PLACEMENT_3D ( 'NONE', #145, #265, #1 ) ;
#97 = CARTESIAN_POINT ( 'NONE',  ( 0.0000000000000000000, 0.0000000000000000000, 0.0000000000000000000 ) ) ;
#98 = ORIENTED_EDGE ( 'NONE', *, *, #40, .F. ) ;
#99 = ORIENTED_EDGE ( 'NONE', *, *, #266, .T. ) ;
#100 = DIRECTION ( 'NONE',  ( -3.491481338843133355E-15, 1.224646799147353207E-16, -1.000000000000000000 ) ) ;
#101 = CIRCLE ( 'NONE', #334, 3.899999999999996358 ) ;
#102 = UNCERTAINTY_MEASURE_WITH_UNIT (LENGTH_MEASURE( 1.000000000000000082E-05 ), #71, 'distance_accuracy_value', 'NONE');
#103 = DATE_AND_TIME ( #247, #273 ) ;
#104 = EDGE_CURVE ( 'NONE', #42, #65, #297, .T. ) ;
#105 = DATE_TIME_ROLE ( 'classification_date' ) ;
#106 = CC_DESIGN_APPROVAL ( #286, ( #307 ) ) ;
#107 = DATE_AND_TIME ( #86, #272 ) ;
#108 = CARTESIAN_POINT ( 'NONE',  ( 9.426999614876460059E-14, 3.899999999999992806, 27.00000000000000000 ) ) ;
#109 = CARTESIAN_POINT ( 'NONE',  ( 2.758270257686075477E-13, -9.674709713264090904E-15, 79.00000000000000000 ) ) ;
#110 = AXIS2_PLACEMENT_3D ( 'NONE', #310, #162, #244 ) ;
#111 = DIRECTION ( 'NONE',  ( 3.950625526948183093E-31, 1.000000000000000000, 1.112002228190262924E-16 ) ) ;
#112 = DIRECTION ( 'NONE',  ( -3.491481338843133355E-15, 1.224646799147353207E-16, -1.000000000000000000 ) ) ;
#113 = DIRECTION ( 'NONE',  ( -3.491481338843133355E-15, 1.224646799147353207E-16, -1.000000000000000000 ) ) ;
#114 = ADVANCED_FACE ( 'NONE', ( #43 ), #68, .T. ) ;
#115 = ORIENTED_EDGE ( 'NONE', *, *, #266, .F. ) ;
#116 = ORIENTED_EDGE ( 'NONE', *, *, #40, .T. ) ;
#117 = VERTEX_POINT ( 'NONE', #214 ) ;
#118 = ADVANCED_FACE ( 'NONE', ( #32 ), #177, .T. ) ;
#119 = DIRECTION ( 'NONE',  ( 0.0000000000000000000, 1.000000000000000000, 0.0000000000000000000 ) ) ;
#120 = DIRECTION ( 'NONE',  ( 0.0000000000000000000, 1.000000000000000000, 0.0000000000000000000 ) ) ;
#121 = CARTESIAN_POINT ( 'NONE',  ( 9.426999614876460059E-14, -3.306546357697853733E-15, 27.00000000000000000 ) ) ;
#122 = CC_DESIGN_APPROVAL ( #77, ( #326 ) ) ;
#123 = ORIENTED_EDGE ( 'NONE', *, *, #243, .F. ) ;
#124 = CARTESIAN_POINT ( 'NONE',  ( 2.730338406975330915E-13, -9.576737969332302470E-15, 78.20000000000000284 ) ) ;
#125 = CARTESIAN_POINT ( 'NONE',  ( 4.776122516674654606E-16, -3.899999999999994582, -4.776122516674687147E-16 ) ) ;
#126 = CC_DESIGN_PERSON_AND_ORGANIZATION_ASSIGNMENT ( #157, #304, ( #87 ) ) ;
#127 = CALENDAR_DATE ( 2021, 3, 9 ) ;
#128 = DIRECTION ( 'NONE',  ( -3.491481338843133355E-15, 1.224646799147353207E-16, -1.000000000000000000 ) ) ;
#129 =( NAMED_UNIT ( * ) SI_UNIT ( $, .STERADIAN. ) SOLID_ANGLE_UNIT ( ) );
#130 = CIRCLE ( 'NONE', #213, 3.100000000000002309 ) ;
#131 = AXIS2_PLACEMENT_3D ( 'NONE', #239, #260, #166 ) ;
#132 = APPLICATION_CONTEXT ( 'configuration controlled 3d designs of mechanical parts and assemblies' ) ;
#133 = ADVANCED_FACE ( 'NONE', ( #69 ), #164, .T. ) ;
#134 = CIRCLE ( 'NONE', #280, 3.899999999999996358 ) ;
#135 = APPROVAL_PERSON_ORGANIZATION ( #80, #322, #335 ) ;
#136 = PERSON_AND_ORGANIZATION_ROLE ( 'classification_officer' ) ;
#137 = DIRECTION ( 'NONE',  ( 4.275831445896958607E-31, 1.000000000000000000, 1.224646799147353454E-16 ) ) ;
#138 = DIRECTION ( 'NONE',  ( 0.0000000000000000000, 1.000000000000000000, 0.0000000000000000000 ) ) ;
#139 = ORIENTED_EDGE ( 'NONE', *, *, #146, .F. ) ;
#140 = LOCAL_TIME ( 9, 22, 40.00000000000000000, #173 ) ;
#141 = CARTESIAN_POINT ( 'NONE',  ( 0.0000000000000000000, 0.0000000000000000000, 0.0000000000000000000 ) ) ;
#142 = EDGE_CURVE ( 'NONE', #92, #58, #336, .T. ) ;
#143 = FACE_OUTER_BOUND ( 'NONE', #163, .T. ) ;
#144 = ORIENTED_EDGE ( 'NONE', *, *, #2, .T. ) ;
#145 = CARTESIAN_POINT ( 'NONE',  ( 0.0000000000000000000, 0.0000000000000000000, 0.0000000000000000000 ) ) ;
#146 = EDGE_CURVE ( 'NONE', #276, #218, #209, .T. ) ;
#147 = AXIS2_PLACEMENT_3D ( 'NONE', #290, #236, #111 ) ;
#148 = EDGE_LOOP ( 'NONE', ( #144, #278, #25, #313 ) ) ;
#149 = DIRECTION ( 'NONE',  ( -2.468850131082257455E-15, 0.7071067811865497932, -0.7071067811865453523 ) ) ;
#150 = DATE_AND_TIME ( #208, #194 ) ;
#151 = EDGE_LOOP ( 'NONE', ( #282, #253, #288, #12 ) ) ;
#152 = DIRECTION ( 'NONE',  ( 3.491481338843133355E-15, -1.224646799147353207E-16, 1.000000000000000000 ) ) ;
#153 = CIRCLE ( 'NONE', #27, 3.899999999999996358 ) ;
#154 = CC_DESIGN_PERSON_AND_ORGANIZATION_ASSIGNMENT ( #232, #136, ( #287 ) ) ;
#155 = AXIS2_PLACEMENT_3D ( 'NONE', #283, #66, #254 ) ;
#156 = CARTESIAN_POINT ( 'NONE',  ( 9.426999614876460059E-14, 3.899999999999992806, 27.00000000000000000 ) ) ;
#157 = PERSON_AND_ORGANIZATION ( #229, #20 ) ;
#158 = APPROVAL_ROLE ( '' ) ;
#159 = ORIENTED_EDGE ( 'NONE', *, *, #289, .F. ) ;
#160 = CARTESIAN_POINT ( 'NONE',  ( 8.659397442131338797E-15, 3.899999999999992806, 2.343356414207507399 ) ) ;
#161 = ORIENTED_EDGE ( 'NONE', *, *, #289, .T. ) ;
#162 = DIRECTION ( 'NONE',  ( -3.491481338843133355E-15, 1.224646799147353207E-16, -1.000000000000000000 ) ) ;
#163 = EDGE_LOOP ( 'NONE', ( #139, #170 ) ) ;
#164 = CYLINDRICAL_SURFACE ( 'NONE', #36, 3.899999999999999467 ) ;
#165 = EDGE_CURVE ( 'NONE', #276, #117, #35, .T. ) ;
#166 = DIRECTION ( 'NONE',  ( 0.0000000000000000000, 1.000000000000000000, 0.0000000000000000000 ) ) ;
#167 = AXIS2_PLACEMENT_3D ( 'NONE', #97, #18, #299 ) ;
#168 = ADVANCED_FACE ( 'NONE', ( #143 ), #259, .F. ) ;
#169 = ORIENTED_EDGE ( 'NONE', *, *, #316, .T. ) ;
#170 = ORIENTED_EDGE ( 'NONE', *, *, #26, .F. ) ;
#171 = CARTESIAN_POINT ( 'NONE',  ( 2.758270257686075477E-13, 3.099999999999992983, 79.00000000000000000 ) ) ;
#172 = CARTESIAN_POINT ( 'NONE',  ( 2.748590596127718295E-13, -3.100000000000012079, 79.00000000000000000 ) ) ;
#173 = COORDINATED_UNIVERSAL_TIME_OFFSET ( 1, 0, .AHEAD. ) ;
#174 = DIRECTION ( 'NONE',  ( 0.0000000000000000000, 1.000000000000000000, 0.0000000000000000000 ) ) ;
#175 = CARTESIAN_POINT ( 'NONE',  ( 8.181785190463867617E-15, -3.899999999999993694, 2.343356414207506511 ) ) ;
#176 = LINE ( 'NONE', #47, #238 ) ;
#177 = CONICAL_SURFACE ( 'NONE', #242, 3.100000000000002309, 0.7853981633974512766 ) ;
#178 = CC_DESIGN_SECURITY_CLASSIFICATION ( #287, ( #307 ) ) ;
#179 = VERTEX_POINT ( 'NONE', #108 ) ;
#180 = EDGE_CURVE ( 'NONE', #218, #92, #292, .T. ) ;
#181 = DIRECTION ( 'NONE',  ( -3.491481338843133355E-15, 1.224646799147353207E-16, -1.000000000000000000 ) ) ;
#182 = ADVANCED_BREP_SHAPE_REPRESENTATION ( '50331', ( #61, #54, #167 ), #267 ) ;
#183 = APPROVAL_STATUS ( 'not_yet_approved' ) ;
#184 = AXIS2_PLACEMENT_3D ( 'NONE', #321, #312, #211 ) ;
#185 = ORIENTED_EDGE ( 'NONE', *, *, #243, .T. ) ;
#186 = PRODUCT_DEFINITION_SHAPE ( 'NONE', 'NONE',  #326 ) ;
#187 = CIRCLE ( 'NONE', #33, 3.900000000000002576 ) ;
#188 = DIRECTION ( 'NONE',  ( 1.903218546456022717E-15, 0.8571673007021097801, 0.5150380749100585964 ) ) ;
#189 = CIRCLE ( 'NONE', #3, 3.899999999999993250 ) ;
#190 = DIRECTION ( 'NONE',  ( -3.491481338843133355E-15, 1.224646799147353207E-16, -1.000000000000000000 ) ) ;
#191 = ADVANCED_FACE ( 'NONE', ( #193 ), #285, .T. ) ;
#192 = PERSON_AND_ORGANIZATION_ROLE ( 'creator' ) ;
#193 = FACE_OUTER_BOUND ( 'NONE', #53, .T. ) ;
#194 = LOCAL_TIME ( 9, 22, 40.00000000000000000, #249 ) ;
#195 = VERTEX_POINT ( 'NONE', #6 ) ;
#196 = DIRECTION ( 'NONE',  ( 4.275831445896958607E-31, 1.000000000000000000, 1.224646799147353207E-16 ) ) ;
#197 = DIRECTION ( 'NONE',  ( -2.382254525458708792E-15, -0.7071067811865495711, -0.7071067811865455743 ) ) ;
#198 = EDGE_CURVE ( 'NONE', #195, #179, #78, .T. ) ;
#199 = DIRECTION ( 'NONE',  ( -3.491481338843133355E-15, 1.224646799147353207E-16, -1.000000000000000000 ) ) ;
#200 = CARTESIAN_POINT ( 'NONE',  ( 1.841295306748162462E-13, -3.899999999999999911, 27.00000000000000000 ) ) ;
#201 = DIRECTION ( 'NONE',  ( -3.491481338843133355E-15, 1.224646799147353207E-16, -1.000000000000000000 ) ) ;
#202 = DIRECTION ( 'NONE',  ( -3.950625526948183093E-31, -1.000000000000000000, -1.112002228190262924E-16 ) ) ;
#203 = CARTESIAN_POINT ( 'NONE',  ( 8.181785190463869195E-15, -2.869783931920642451E-16, 2.343356414207506955 ) ) ;
#204 = DIRECTION ( 'NONE',  ( 0.0000000000000000000, 1.000000000000000000, 0.0000000000000000000 ) ) ;
#205 = ADVANCED_FACE ( 'NONE', ( #60 ), #217, .T. ) ;
#206 = AXIS2_PLACEMENT_3D ( 'NONE', #315, #323, #13 ) ;
#207 = PERSON_AND_ORGANIZATION_ROLE ( 'creator' ) ;
#208 = CALENDAR_DATE ( 2021, 3, 9 ) ;
#209 = CIRCLE ( 'NONE', #131, 3.100000000000002309 ) ;
#210 = ADVANCED_FACE ( 'NONE', ( #41 ), #237, .F. ) ;
#211 = DIRECTION ( 'NONE',  ( -4.275831445896958607E-31, -1.000000000000000000, -1.224646799147353207E-16 ) ) ;
#212 = EDGE_CURVE ( 'NONE', #179, #70, #220, .T. ) ;
#213 = AXIS2_PLACEMENT_3D ( 'NONE', #303, #22, #204 ) ;
#214 = CARTESIAN_POINT ( 'NONE',  ( 2.730338406975330915E-13, 3.899999999999992806, 78.20000000000000284 ) ) ;
#215 = PERSON_AND_ORGANIZATION ( #229, #20 ) ;
#216 = DIRECTION ( 'NONE',  ( -3.491481338843133355E-15, 1.224646799147353207E-16, -1.000000000000000000 ) ) ;
#217 = CONICAL_SURFACE ( 'NONE', #252, 3.100000000000002309, 0.7853981633974512766 ) ;
#218 = VERTEX_POINT ( 'NONE', #172 ) ;
#219 = CARTESIAN_POINT ( 'NONE',  ( 1.667574263899811562E-30, 3.899999999999994582, 4.776122516674671370E-16 ) ) ;
#220 = LINE ( 'NONE', #219, #319 ) ;
#221 = DIRECTION ( 'NONE',  ( 3.491481338843133355E-15, -1.224646799147353207E-16, 1.000000000000000000 ) ) ;
#222 = APPLICATION_PROTOCOL_DEFINITION ( 'international standard', 'config_control_design', 1994, #295 ) ;
#223 = DATE_AND_TIME ( #127, #140 ) ;
#224 = CARTESIAN_POINT ( 'NONE',  ( 8.181785190463867617E-15, -3.899999999999993694, 2.343356414207506511 ) ) ;
#225 = PERSON_AND_ORGANIZATION ( #229, #20 ) ;
#226 = LINE ( 'NONE', #125, #63 ) ;
#227 = CONICAL_SURFACE ( 'NONE', #261, 3.899999999999993250, 1.029744258676649649 ) ;
#228 = DIRECTION ( 'NONE',  ( 3.950625526948183093E-31, 1.000000000000000000, 1.112002228190262924E-16 ) ) ;
#229 = PERSON ( 'UNSPECIFIED', 'UNSPECIFIED', 'UNSPECIFIED', ('UNSPECIFIED'), ('UNSPECIFIED'), ('UNSPECIFIED') ) ;
#230 = FACE_OUTER_BOUND ( 'NONE', #30, .T. ) ;
#231 = CIRCLE ( 'NONE', #206, 3.900000000000002576 ) ;
#232 = PERSON_AND_ORGANIZATION ( #229, #20 ) ;
#233 = LINE ( 'NONE', #84, #64 ) ;
#234 = ORIENTED_EDGE ( 'NONE', *, *, #198, .F. ) ;
#235 = SECURITY_CLASSIFICATION_LEVEL ( 'unclassified' ) ;
#236 = DIRECTION ( 'NONE',  ( -3.491481338843133355E-15, 1.224646799147353207E-16, -1.000000000000000000 ) ) ;
#237 = PLANE ( 'NONE',  #184 ) ;
#238 = VECTOR ( 'NONE', #100, 1000.000000000000000 ) ;
#239 = CARTESIAN_POINT ( 'NONE',  ( 2.758270257686075477E-13, -9.674709713264090904E-15, 79.00000000000000000 ) ) ;
#240 = CC_DESIGN_DATE_AND_TIME_ASSIGNMENT ( #103, #302, ( #326 ) ) ;
#241 = EDGE_LOOP ( 'NONE', ( #300, #116 ) ) ;
#242 = AXIS2_PLACEMENT_3D ( 'NONE', #337, #190, #269 ) ;
#243 = EDGE_CURVE ( 'NONE', #42, #70, #233, .T. ) ;
#244 = DIRECTION ( 'NONE',  ( 4.275831445896958607E-31, 1.000000000000000000, 1.224646799147353207E-16 ) ) ;
#245 = CARTESIAN_POINT ( 'NONE',  ( 8.181785190463869195E-15, -2.869783931920642451E-16, 2.343356414207506955 ) ) ;
#246 = APPROVAL_PERSON_ORGANIZATION ( #274, #286, #158 ) ;
#247 = CALENDAR_DATE ( 2021, 3, 9 ) ;
#248 = ADVANCED_FACE ( 'NONE', ( #29 ), #93, .T. ) ;
#249 = COORDINATED_UNIVERSAL_TIME_OFFSET ( 1, 0, .AHEAD. ) ;
#250 = ORIENTED_EDGE ( 'NONE', *, *, #165, .F. ) ;
#251 = CALENDAR_DATE ( 2021, 3, 9 ) ;
#252 = AXIS2_PLACEMENT_3D ( 'NONE', #109, #4, #138 ) ;
#253 = ORIENTED_EDGE ( 'NONE', *, *, #31, .T. ) ;
#254 = DIRECTION ( 'NONE',  ( 4.275831445896958607E-31, 1.000000000000000000, 1.224646799147353454E-16 ) ) ;
#255 = ORIENTED_EDGE ( 'NONE', *, *, #142, .F. ) ;
#256 = CC_DESIGN_DATE_AND_TIME_ASSIGNMENT ( #277, #105, ( #287 ) ) ;
#257 = EDGE_LOOP ( 'NONE', ( #325, #9, #8, #159 ) ) ;
#258 = PERSON_AND_ORGANIZATION ( #229, #20 ) ;
#259 = PLANE ( 'NONE',  #110 ) ;
#260 = DIRECTION ( 'NONE',  ( -3.491481338843133355E-15, 1.224646799147353207E-16, -1.000000000000000000 ) ) ;
#261 = AXIS2_PLACEMENT_3D ( 'NONE', #203, #152, #202 ) ;
#262 = CC_DESIGN_APPROVAL ( #322, ( #287 ) ) ;
#263 = CC_DESIGN_PERSON_AND_ORGANIZATION_ASSIGNMENT ( #215, #311, ( #307 ) ) ;
#264 = ORIENTED_EDGE ( 'NONE', *, *, #198, .T. ) ;
#265 = DIRECTION ( 'NONE',  ( -3.491481338843133355E-15, 1.224646799147353207E-16, -1.000000000000000000 ) ) ;
#266 = EDGE_CURVE ( 'NONE', #65, #70, #49, .T. ) ;
#267 =( GEOMETRIC_REPRESENTATION_CONTEXT ( 3 ) GLOBAL_UNCERTAINTY_ASSIGNED_CONTEXT ( ( #102 ) ) GLOBAL_UNIT_ASSIGNED_CONTEXT ( ( #71, #21, #129 ) ) REPRESENTATION_CONTEXT ( 'NONE', 'WORKASPACE' ) );
#268 = DIRECTION ( 'NONE',  ( -3.491481338843133355E-15, 1.224646799147353207E-16, -1.000000000000000000 ) ) ;
#269 = DIRECTION ( 'NONE',  ( 0.0000000000000000000, 1.000000000000000000, 0.0000000000000000000 ) ) ;
#270 = CARTESIAN_POINT ( 'NONE',  ( 9.426999614876460059E-14, 2.924531576190614672E-32, 27.00000000000000000 ) ) ;
#271 = COORDINATED_UNIVERSAL_TIME_OFFSET ( 1, 0, .AHEAD. ) ;
#272 = LOCAL_TIME ( 9, 22, 40.00000000000000000, #314 ) ;
#273 = LOCAL_TIME ( 9, 22, 40.00000000000000000, #271 ) ;
#274 = PERSON_AND_ORGANIZATION ( #229, #20 ) ;
#275 = APPROVAL_ROLE ( '' ) ;
#276 = VERTEX_POINT ( 'NONE', #171 ) ;
#277 = DATE_AND_TIME ( #251, #44 ) ;
#278 = ORIENTED_EDGE ( 'NONE', *, *, #142, .T. ) ;
#279 = DIRECTION ( 'NONE',  ( 0.0000000000000000000, 1.000000000000000000, 0.0000000000000000000 ) ) ;
#280 = AXIS2_PLACEMENT_3D ( 'NONE', #82, #52, #279 ) ;
#281 = CARTESIAN_POINT ( 'NONE',  ( 0.0000000000000000000, 0.0000000000000000000, 0.0000000000000000000 ) ) ;
#282 = ORIENTED_EDGE ( 'NONE', *, *, #308, .T. ) ;
#283 = CARTESIAN_POINT ( 'NONE',  ( 0.0000000000000000000, 0.0000000000000000000, 0.0000000000000000000 ) ) ;
#284 = ORIENTED_EDGE ( 'NONE', *, *, #104, .T. ) ;
#285 = CYLINDRICAL_SURFACE ( 'NONE', #155, 3.899999999999994582 ) ;
#286 = APPROVAL ( #76, 'UNSPECIFIED' ) ;
#287 = SECURITY_CLASSIFICATION ( '', '', #235 ) ;
#288 = ORIENTED_EDGE ( 'NONE', *, *, #331, .F. ) ;
#289 = EDGE_CURVE ( 'NONE', #92, #117, #231, .T. ) ;
#290 = CARTESIAN_POINT ( 'NONE',  ( 8.181785190463869195E-15, -2.869783931920642451E-16, 2.343356414207506955 ) ) ;
#291 = CONICAL_SURFACE ( 'NONE', #55, 3.899999999999993250, 1.029744258676649649 ) ;
#292 = LINE ( 'NONE', #57, #301 ) ;
#293 = PLANE ( 'NONE',  #67 ) ;
#294 = APPLICATION_PROTOCOL_DEFINITION ( 'international standard', 'config_control_design', 1994, #132 ) ;
#295 = APPLICATION_CONTEXT ( 'configuration controlled 3d designs of mechanical parts and assemblies' ) ;
#296 = ADVANCED_FACE ( 'NONE', ( #328 ), #291, .T. ) ;
#297 = LINE ( 'NONE', #175, #34 ) ;
#298 = DESIGN_CONTEXT ( 'detailed design', #295, 'design' ) ;
#299 = DIRECTION ( 'NONE',  ( 1.000000000000000000, 0.0000000000000000000, 0.0000000000000000000 ) ) ;
#300 = ORIENTED_EDGE ( 'NONE', *, *, #94, .T. ) ;
#301 = VECTOR ( 'NONE', #197, 1000.000000000000114 ) ;
#302 = DATE_TIME_ROLE ( 'creation_date' ) ;
#303 = CARTESIAN_POINT ( 'NONE',  ( 2.758270257686075477E-13, -9.674709713264090904E-15, 79.00000000000000000 ) ) ;
#304 = PERSON_AND_ORGANIZATION_ROLE ( 'design_owner' ) ;
#305 = PRODUCT_RELATED_PRODUCT_CATEGORY ( 'detail', '', ( #87 ) ) ;
#306 = EDGE_LOOP ( 'NONE', ( #255, #161, #169, #98 ) ) ;
#307 = PRODUCT_DEFINITION_FORMATION_WITH_SPECIFIED_SOURCE ( 'ANY', '', #87, .NOT_KNOWN. ) ;
#308 = EDGE_CURVE ( 'NONE', #179, #195, #101, .T. ) ;
#309 = APPROVAL_DATE_TIME ( #150, #286 ) ;
#310 = CARTESIAN_POINT ( 'NONE',  ( 2.758270257686075477E-13, 2.324627663125866976E-32, 79.00000000000000000 ) ) ;
#311 = PERSON_AND_ORGANIZATION_ROLE ( 'design_supplier' ) ;
#312 = DIRECTION ( 'NONE',  ( 3.491481338843133355E-15, -1.224646799147353207E-16, 1.000000000000000000 ) ) ;
#313 = ORIENTED_EDGE ( 'NONE', *, *, #316, .F. ) ;
#314 = COORDINATED_UNIVERSAL_TIME_OFFSET ( 1, 0, .AHEAD. ) ;
#315 = CARTESIAN_POINT ( 'NONE',  ( 2.730338406975330915E-13, -9.576737969332302470E-15, 78.20000000000000284 ) ) ;
#316 = EDGE_CURVE ( 'NONE', #117, #23, #176, .T. ) ;
#317 = DIRECTION ( 'NONE',  ( -4.275831445896958607E-31, -1.000000000000000000, -1.224646799147353207E-16 ) ) ;
#318 = ORIENTED_EDGE ( 'NONE', *, *, #212, .T. ) ;
#319 = VECTOR ( 'NONE', #268, 1000.000000000000000 ) ;
#320 = ADVANCED_FACE ( 'NONE', ( #330 ), #227, .T. ) ;
#321 = CARTESIAN_POINT ( 'NONE',  ( 9.426999614876460059E-14, 2.924531576190614672E-32, 27.00000000000000000 ) ) ;
#322 = APPROVAL ( #56, 'UNSPECIFIED' ) ;
#323 = DIRECTION ( 'NONE',  ( -3.491481338843133355E-15, 1.224646799147353207E-16, -1.000000000000000000 ) ) ;
#324 = VECTOR ( 'NONE', #149, 1000.000000000000114 ) ;
#325 = ORIENTED_EDGE ( 'NONE', *, *, #180, .F. ) ;
#326 = PRODUCT_DEFINITION ( 'UNKNOWN', '', #307, #298 ) ;
#327 = ORIENTED_EDGE ( 'NONE', *, *, #146, .T. ) ;
#328 = FACE_OUTER_BOUND ( 'NONE', #333, .T. ) ;
#329 = DIRECTION ( 'NONE',  ( 0.0000000000000000000, 1.000000000000000000, 0.0000000000000000000 ) ) ;
#330 = FACE_OUTER_BOUND ( 'NONE', #37, .T. ) ;
#331 = EDGE_CURVE ( 'NONE', #70, #65, #189, .T. ) ;
#332 = COORDINATED_UNIVERSAL_TIME_OFFSET ( 1, 0, .AHEAD. ) ;
#333 = EDGE_LOOP ( 'NONE', ( #123, #284, #99 ) ) ;
#334 = AXIS2_PLACEMENT_3D ( 'NONE', #121, #181, #329 ) ;
#335 = APPROVAL_ROLE ( '' ) ;
#336 = LINE ( 'NONE', #62, #74 ) ;
#337 = CARTESIAN_POINT ( 'NONE',  ( 2.758270257686075477E-13, -9.674709713264090904E-15, 79.00000000000000000 ) ) ;
ENDSEC;
END-ISO-10303-21;
