ISO-10303-21;
HEADER;
FILE_DESCRIPTION (( 'STEP AP203' ),
    '1' );
FILE_NAME ('50299.step',
    '2021-10-08T05:53:58',
    ( '' ),
    ( '' ),
    'SwSTEP 2.0',
    'SolidWorks 2019',
    '' );
FILE_SCHEMA (( 'CONFIG_CONTROL_DESIGN' ));
ENDSEC;

DATA;
#1 = FACE_OUTER_BOUND ( 'NONE', #198, .T. ) ;
#2 = DIRECTION ( 'NONE',  ( 0.0000000000000000000, 1.000000000000000000, 0.0000000000000000000 ) ) ;
#3 = APPROVAL_STATUS ( 'not_yet_approved' ) ;
#4 = EDGE_CURVE ( 'NONE', #194, #194, #163, .T. ) ;
#5 = APPROVAL_ROLE ( '' ) ;
#6 = ADVANCED_FACE ( 'NONE', ( #221 ), #205, .F. ) ;
#7 = VERTEX_POINT ( 'NONE', #209 ) ;
#8 = ADVANCED_FACE ( 'NONE', ( #9 ), #173, .F. ) ;
#9 = FACE_OUTER_BOUND ( 'NONE', #125, .T. ) ;
#10 = CARTESIAN_POINT ( 'NONE',  ( 1.169168460693961043E-15, -4.100890923069678585E-17, 0.3348631561299860726 ) ) ;
#11 = DIRECTION ( 'NONE',  ( -3.491481338843133355E-15, 1.224646799147353207E-16, -1.000000000000000000 ) ) ;
#12 = CARTESIAN_POINT ( 'NONE',  ( 3.491481338843133355E-14, 4.349303369719370231E-33, 10.00000000000000000 ) ) ;
#13 = CYLINDRICAL_SURFACE ( 'NONE', #136, 0.5799999999999995159 ) ;
#14 = AXIS2_PLACEMENT_3D ( 'NONE', #187, #160, #96 ) ;
#15 = DATE_AND_TIME ( #207, #197 ) ;
#16 = ADVANCED_FACE ( 'NONE', ( #203, #97 ), #131, .T. ) ;
#17 = PERSON_AND_ORGANIZATION_ROLE ( 'design_supplier' ) ;
#18 = AXIS2_PLACEMENT_3D ( 'NONE', #24, #116, #189 ) ;
#19 =( GEOMETRIC_REPRESENTATION_CONTEXT ( 3 ) GLOBAL_UNCERTAINTY_ASSIGNED_CONTEXT ( ( #80 ) ) GLOBAL_UNIT_ASSIGNED_CONTEXT ( ( #183, #139, #142 ) ) REPRESENTATION_CONTEXT ( 'NONE', 'WORKASPACE' ) );
#20 = APPLICATION_CONTEXT ( 'configuration controlled 3d designs of mechanical parts and assemblies' ) ;
#21 = EDGE_CURVE ( 'NONE', #7, #7, #58, .T. ) ;
#22 = EDGE_LOOP ( 'NONE', ( #108 ) ) ;
#23 = ORIENTED_EDGE ( 'NONE', *, *, #151, .T. ) ;
#24 = CARTESIAN_POINT ( 'NONE',  ( 1.169168460693961043E-15, -4.100890923069678585E-17, 0.3348631561299860726 ) ) ;
#25 = CARTESIAN_POINT ( 'NONE',  ( 3.491481338843133355E-14, 4.349303369719370231E-33, 10.00000000000000000 ) ) ;
#26 = PLANE ( 'NONE',  #66 ) ;
#27 = CC_DESIGN_PERSON_AND_ORGANIZATION_ASSIGNMENT ( #49, #120, ( #50 ) ) ;
#28 = CARTESIAN_POINT ( 'NONE',  ( 3.594287531076566609E-14, -1.260706357264000027E-15, 10.29444863728670967 ) ) ;
#29 = PERSON_AND_ORGANIZATION ( #122, #182 ) ;
#30 = APPROVAL_PERSON_ORGANIZATION ( #69, #168, #162 ) ;
#31 = CARTESIAN_POINT ( 'NONE',  ( 1.169168460693961240E-15, 0.5799999999999988498, 0.3348631561299861281 ) ) ;
#32 = COORDINATED_UNIVERSAL_TIME_OFFSET ( 1, 0, .AHEAD. ) ;
#33 = PERSON_AND_ORGANIZATION ( #122, #182 ) ;
#34 = AXIS2_PLACEMENT_3D ( 'NONE', #188, #117, #2 ) ;
#35 = APPLICATION_PROTOCOL_DEFINITION ( 'international standard', 'config_control_design', 1994, #20 ) ;
#36 = ADVANCED_FACE ( 'NONE', ( #100, #177 ), #61, .T. ) ;
#37 = DATE_AND_TIME ( #73, #192 ) ;
#38 = LOCAL_TIME ( 7, 53, 58.00000000000000000, #53 ) ;
#39 = AXIS2_PLACEMENT_3D ( 'NONE', #42, #11, #186 ) ;
#40 = EDGE_LOOP ( 'NONE', ( #111 ) ) ;
#41 = AXIS2_PLACEMENT_3D ( 'NONE', #132, #46, #48 ) ;
#42 = CARTESIAN_POINT ( 'NONE',  ( 1.047444401652940007E-13, 4.124339402320052999E-33, 30.00000000000000000 ) ) ;
#43 = DIRECTION ( 'NONE',  ( -3.491481338843133355E-15, 1.224646799147353207E-16, -1.000000000000000000 ) ) ;
#44 = PRODUCT_DEFINITION_SHAPE ( 'NONE', 'NONE',  #90 ) ;
#45 = CC_DESIGN_DATE_AND_TIME_ASSIGNMENT ( #91, #76, ( #59 ) ) ;
#46 = DIRECTION ( 'NONE',  ( -3.491481338843133355E-15, 1.224646799147353207E-16, -1.000000000000000000 ) ) ;
#47 = DIRECTION ( 'NONE',  ( 0.0000000000000000000, -1.000000000000000000, 0.0000000000000000000 ) ) ;
#48 = DIRECTION ( 'NONE',  ( 0.0000000000000000000, 1.000000000000000000, 0.0000000000000000000 ) ) ;
#49 = PERSON_AND_ORGANIZATION ( #122, #182 ) ;
#50 = PRODUCT_DEFINITION_FORMATION_WITH_SPECIFIED_SOURCE ( 'ANY', '', #56, .NOT_KNOWN. ) ;
#51 = PERSON_AND_ORGANIZATION_ROLE ( 'design_owner' ) ;
#52 = CC_DESIGN_PERSON_AND_ORGANIZATION_ASSIGNMENT ( #149, #124, ( #59 ) ) ;
#53 = COORDINATED_UNIVERSAL_TIME_OFFSET ( 1, 0, .AHEAD. ) ;
#54 = CARTESIAN_POINT ( 'NONE',  ( 0.0000000000000000000, 0.0000000000000000000, 0.0000000000000000000 ) ) ;
#55 = EDGE_LOOP ( 'NONE', ( #216 ) ) ;
#56 = PRODUCT ( '50299', '50299', '', ( #67 ) ) ;
#57 = ORIENTED_EDGE ( 'NONE', *, *, #206, .T. ) ;
#58 = CIRCLE ( 'NONE', #102, 0.5800000000000000711 ) ;
#59 = SECURITY_CLASSIFICATION ( '', '', #75 ) ;
#60 = ORIENTED_EDGE ( 'NONE', *, *, #4, .F. ) ;
#61 = CYLINDRICAL_SURFACE ( 'NONE', #170, 0.7499999999999986677 ) ;
#62 = DIRECTION ( 'NONE',  ( 3.491481338843133355E-15, -1.224646799147353207E-16, 1.000000000000000000 ) ) ;
#63 = CIRCLE ( 'NONE', #179, 0.5800000000000000711 ) ;
#64 = DIRECTION ( 'NONE',  ( -4.275831445896958607E-31, -1.000000000000000000, -1.224646799147353207E-16 ) ) ;
#65 = CARTESIAN_POINT ( 'NONE',  ( 3.491481338843133355E-14, -1.224646799147353256E-15, 10.00000000000000000 ) ) ;
#66 = AXIS2_PLACEMENT_3D ( 'NONE', #12, #204, #98 ) ;
#67 = MECHANICAL_CONTEXT ( 'NONE', #20, 'mechanical' ) ;
#68 = EDGE_CURVE ( 'NONE', #181, #181, #159, .T. ) ;
#69 = PERSON_AND_ORGANIZATION ( #122, #182 ) ;
#70 = DATE_AND_TIME ( #105, #74 ) ;
#71 = APPROVAL ( #215, 'UNSPECIFIED' ) ;
#72 = ORIENTED_EDGE ( 'NONE', *, *, #68, .F. ) ;
#73 = CALENDAR_DATE ( 2021, 8, 10 ) ;
#74 = LOCAL_TIME ( 7, 53, 58.00000000000000000, #32 ) ;
#75 = SECURITY_CLASSIFICATION_LEVEL ( 'unclassified' ) ;
#76 = DATE_TIME_ROLE ( 'classification_date' ) ;
#77 = DIRECTION ( 'NONE',  ( -3.491481338843133355E-15, 1.224646799147353207E-16, -1.000000000000000000 ) ) ;
#78 = FACE_OUTER_BOUND ( 'NONE', #169, .T. ) ;
#79 = FACE_OUTER_BOUND ( 'NONE', #112, .T. ) ;
#80 = UNCERTAINTY_MEASURE_WITH_UNIT (LENGTH_MEASURE( 1.000000000000000082E-05 ), #183, 'distance_accuracy_value', 'NONE');
#81 = DIRECTION ( 'NONE',  ( 4.275831445896957731E-31, 1.000000000000000000, 1.224646799147352961E-16 ) ) ;
#82 = CARTESIAN_POINT ( 'NONE',  ( 3.491481338843133355E-14, -1.224646799147353256E-15, 10.00000000000000000 ) ) ;
#83 = CARTESIAN_POINT ( 'NONE',  ( 3.491481338843133355E-14, 0.5799999999999989608, 10.00000000000000000 ) ) ;
#84 = VERTEX_POINT ( 'NONE', #104 ) ;
#85 = VERTEX_POINT ( 'NONE', #83 ) ;
#86 = APPROVAL ( #190, 'UNSPECIFIED' ) ;
#87 = AXIS2_PLACEMENT_3D ( 'NONE', #10, #77, #158 ) ;
#88 = CC_DESIGN_APPROVAL ( #71, ( #59 ) ) ;
#89 = CARTESIAN_POINT ( 'NONE',  ( 1.047444401652940007E-13, 0.5499999999999963807, 30.00000000000000000 ) ) ;
#90 = PRODUCT_DEFINITION ( 'UNKNOWN', '', #50, #138 ) ;
#91 = DATE_AND_TIME ( #144, #220 ) ;
#92 = CIRCLE ( 'NONE', #41, 0.5500000000000000444 ) ;
#93 = ADVANCED_FACE ( 'NONE', ( #1, #202 ), #13, .T. ) ;
#94 = EDGE_LOOP ( 'NONE', ( #23 ) ) ;
#95 = CC_DESIGN_PERSON_AND_ORGANIZATION_ASSIGNMENT ( #29, #51, ( #56 ) ) ;
#96 = DIRECTION ( 'NONE',  ( 0.0000000000000000000, 1.000000000000000000, 0.0000000000000000000 ) ) ;
#97 = FACE_BOUND ( 'NONE', #167, .T. ) ;
#98 = DIRECTION ( 'NONE',  ( -4.275831445896958607E-31, -1.000000000000000000, -1.224646799147353207E-16 ) ) ;
#99 = FACE_OUTER_BOUND ( 'NONE', #22, .T. ) ;
#100 = FACE_OUTER_BOUND ( 'NONE', #200, .T. ) ;
#101 = PRODUCT_RELATED_PRODUCT_CATEGORY ( 'detail', '', ( #56 ) ) ;
#102 = AXIS2_PLACEMENT_3D ( 'NONE', #82, #178, #115 ) ;
#103 = APPROVAL_DATE_TIME ( #15, #86 ) ;
#104 = CARTESIAN_POINT ( 'NONE',  ( 1.040461438975253740E-13, 0.7499999999999962252, 29.80000000000000071 ) ) ;
#105 = CALENDAR_DATE ( 2021, 8, 10 ) ;
#106 = APPROVAL_PERSON_ORGANIZATION ( #152, #71, #185 ) ;
#107 = PERSON_AND_ORGANIZATION ( #122, #182 ) ;
#108 = ORIENTED_EDGE ( 'NONE', *, *, #68, .T. ) ;
#109 = CIRCLE ( 'NONE', #34, 0.7499999999999998890 ) ;
#110 = EDGE_CURVE ( 'NONE', #121, #121, #92, .T. ) ;
#111 = ORIENTED_EDGE ( 'NONE', *, *, #21, .F. ) ;
#112 = EDGE_LOOP ( 'NONE', ( #113 ) ) ;
#113 = ORIENTED_EDGE ( 'NONE', *, *, #4, .T. ) ;
#114 = AXIS2_PLACEMENT_3D ( 'NONE', #223, #62, #47 ) ;
#115 = DIRECTION ( 'NONE',  ( 0.0000000000000000000, 1.000000000000000000, 0.0000000000000000000 ) ) ;
#116 = DIRECTION ( 'NONE',  ( 3.491481338843133355E-15, -1.224646799147353207E-16, 1.000000000000000000 ) ) ;
#117 = DIRECTION ( 'NONE',  ( -3.491481338843133355E-15, 1.224646799147353207E-16, -1.000000000000000000 ) ) ;
#118 = PERSON_AND_ORGANIZATION ( #122, #182 ) ;
#119 = CC_DESIGN_PERSON_AND_ORGANIZATION_ASSIGNMENT ( #118, #17, ( #50 ) ) ;
#120 = PERSON_AND_ORGANIZATION_ROLE ( 'creator' ) ;
#121 = VERTEX_POINT ( 'NONE', #89 ) ;
#122 = PERSON ( 'UNSPECIFIED', 'UNSPECIFIED', 'UNSPECIFIED', ('UNSPECIFIED'), ('UNSPECIFIED'), ('UNSPECIFIED') ) ;
#123 = CC_DESIGN_DATE_AND_TIME_ASSIGNMENT ( #161, #137, ( #90 ) ) ;
#124 = PERSON_AND_ORGANIZATION_ROLE ( 'classification_officer' ) ;
#125 = EDGE_LOOP ( 'NONE', ( #172 ) ) ;
#126 = ORIENTED_EDGE ( 'NONE', *, *, #206, .F. ) ;
#127 = CARTESIAN_POINT ( 'NONE',  ( 0.0000000000000000000, 0.0000000000000000000, 0.0000000000000000000 ) ) ;
#128 = CARTESIAN_POINT ( 'NONE',  ( 0.0000000000000000000, 0.0000000000000000000, 0.0000000000000000000 ) ) ;
#129 = DIRECTION ( 'NONE',  ( 4.275831445896959482E-31, 1.000000000000000000, 1.224646799147353207E-16 ) ) ;
#130 = ADVANCED_FACE ( 'NONE', ( #78 ), #26, .T. ) ;
#131 = CONICAL_SURFACE ( 'NONE', #14, 0.5500000000000000444, 0.7853981633974510546 ) ;
#132 = CARTESIAN_POINT ( 'NONE',  ( 1.047444401652940007E-13, -3.673940397442059178E-15, 30.00000000000000000 ) ) ;
#133 = DIRECTION ( 'NONE',  ( -3.491481338843133355E-15, 1.224646799147353207E-16, -1.000000000000000000 ) ) ;
#134 = COORDINATED_UNIVERSAL_TIME_OFFSET ( 1, 0, .AHEAD. ) ;
#135 = MANIFOLD_SOLID_BREP ( 'Corps-Déplacer/Copier1[2]', #174 ) ;
#136 = AXIS2_PLACEMENT_3D ( 'NONE', #127, #43, #81 ) ;
#137 = DATE_TIME_ROLE ( 'creation_date' ) ;
#138 = DESIGN_CONTEXT ( 'detailed design', #146, 'design' ) ;
#139 =( NAMED_UNIT ( * ) PLANE_ANGLE_UNIT ( ) SI_UNIT ( $, .RADIAN. ) );
#140 = PERSON_AND_ORGANIZATION_ROLE ( 'creator' ) ;
#141 = ADVANCED_FACE ( 'NONE', ( #176, #79 ), #143, .T. ) ;
#142 =( NAMED_UNIT ( * ) SI_UNIT ( $, .STERADIAN. ) SOLID_ANGLE_UNIT ( ) );
#143 = CONICAL_SURFACE ( 'NONE', #114, 0.7499999999999976685, 0.5235987755982931535 ) ;
#144 = CALENDAR_DATE ( 2021, 8, 10 ) ;
#145 = ORIENTED_EDGE ( 'NONE', *, *, #21, .T. ) ;
#146 = APPLICATION_CONTEXT ( 'configuration controlled 3d designs of mechanical parts and assemblies' ) ;
#147 = SHAPE_DEFINITION_REPRESENTATION ( #44, #222 ) ;
#148 = AXIS2_PLACEMENT_3D ( 'NONE', #54, #164, #208 ) ;
#149 = PERSON_AND_ORGANIZATION ( #122, #182 ) ;
#150 = ORIENTED_EDGE ( 'NONE', *, *, #110, .T. ) ;
#151 = EDGE_CURVE ( 'NONE', #84, #84, #109, .T. ) ;
#152 = PERSON_AND_ORGANIZATION ( #122, #182 ) ;
#153 = DIRECTION ( 'NONE',  ( -3.491481338843133355E-15, 1.224646799147353207E-16, -1.000000000000000000 ) ) ;
#154 = CLOSED_SHELL ( 'NONE', ( #6, #141, #36, #16, #8 ) ) ;
#155 = CC_DESIGN_APPROVAL ( #86, ( #50 ) ) ;
#156 = DIRECTION ( 'NONE',  ( 3.491481338843133355E-15, -1.224646799147353207E-16, 1.000000000000000000 ) ) ;
#157 = DIRECTION ( 'NONE',  ( -3.491481338843133355E-15, 1.224646799147353207E-16, -1.000000000000000000 ) ) ;
#158 = DIRECTION ( 'NONE',  ( 3.320568869633171893E-31, 1.000000000000000000, 9.346570452461263780E-17 ) ) ;
#159 = CIRCLE ( 'NONE', #87, 0.5799999999999988498 ) ;
#160 = DIRECTION ( 'NONE',  ( -3.491481338843133355E-15, 1.224646799147353207E-16, -1.000000000000000000 ) ) ;
#161 = DATE_AND_TIME ( #211, #38 ) ;
#162 = APPROVAL_ROLE ( '' ) ;
#163 = CIRCLE ( 'NONE', #210, 0.7499999999999976685 ) ;
#164 = DIRECTION ( 'NONE',  ( 0.0000000000000000000, 0.0000000000000000000, 1.000000000000000000 ) ) ;
#165 = APPROVAL_DATE_TIME ( #70, #168 ) ;
#166 = CC_DESIGN_APPROVAL ( #168, ( #90 ) ) ;
#167 = EDGE_LOOP ( 'NONE', ( #150 ) ) ;
#168 = APPROVAL ( #3, 'UNSPECIFIED' ) ;
#169 = EDGE_LOOP ( 'NONE', ( #126 ) ) ;
#170 = AXIS2_PLACEMENT_3D ( 'NONE', #128, #157, #129 ) ;
#171 = COORDINATED_UNIVERSAL_TIME_OFFSET ( 1, 0, .AHEAD. ) ;
#172 = ORIENTED_EDGE ( 'NONE', *, *, #110, .F. ) ;
#173 = PLANE ( 'NONE',  #39 ) ;
#174 = CLOSED_SHELL ( 'NONE', ( #195, #93, #130 ) ) ;
#175 = APPROVAL_PERSON_ORGANIZATION ( #107, #86, #5 ) ;
#176 = FACE_BOUND ( 'NONE', #40, .T. ) ;
#177 = FACE_OUTER_BOUND ( 'NONE', #94, .T. ) ;
#178 = DIRECTION ( 'NONE',  ( -3.491481338843133355E-15, 1.224646799147353207E-16, -1.000000000000000000 ) ) ;
#179 = AXIS2_PLACEMENT_3D ( 'NONE', #65, #133, #180 ) ;
#180 = DIRECTION ( 'NONE',  ( 0.0000000000000000000, 1.000000000000000000, 0.0000000000000000000 ) ) ;
#181 = VERTEX_POINT ( 'NONE', #31 ) ;
#182 = ORGANIZATION ( 'UNSPECIFIED', 'UNSPECIFIED', '' ) ;
#183 =( LENGTH_UNIT ( ) NAMED_UNIT ( * ) SI_UNIT ( .MILLI., .METRE. ) );
#184 = EDGE_LOOP ( 'NONE', ( #57 ) ) ;
#185 = APPROVAL_ROLE ( '' ) ;
#186 = DIRECTION ( 'NONE',  ( 4.275831445896958607E-31, 1.000000000000000000, 1.224646799147353207E-16 ) ) ;
#187 = CARTESIAN_POINT ( 'NONE',  ( 1.047444401652940007E-13, -3.673940397442059178E-15, 30.00000000000000000 ) ) ;
#188 = CARTESIAN_POINT ( 'NONE',  ( 1.040461438975253740E-13, -3.649447461459112464E-15, 29.80000000000000071 ) ) ;
#189 = DIRECTION ( 'NONE',  ( -3.320568869633171893E-31, -1.000000000000000000, -9.346570452461263780E-17 ) ) ;
#190 = APPROVAL_STATUS ( 'not_yet_approved' ) ;
#191 = AXIS2_PLACEMENT_3D ( 'NONE', #25, #156, #64 ) ;
#192 = LOCAL_TIME ( 7, 53, 58.00000000000000000, #212 ) ;
#193 = CARTESIAN_POINT ( 'NONE',  ( 3.594287531076566609E-14, 0.7499999999999963363, 10.29444863728670967 ) ) ;
#194 = VERTEX_POINT ( 'NONE', #193 ) ;
#195 = ADVANCED_FACE ( 'NONE', ( #99 ), #219, .T. ) ;
#196 = APPLICATION_PROTOCOL_DEFINITION ( 'international standard', 'config_control_design', 1994, #146 ) ;
#197 = LOCAL_TIME ( 7, 53, 58.00000000000000000, #134 ) ;
#198 = EDGE_LOOP ( 'NONE', ( #72 ) ) ;
#199 = CC_DESIGN_PERSON_AND_ORGANIZATION_ASSIGNMENT ( #33, #140, ( #90 ) ) ;
#200 = EDGE_LOOP ( 'NONE', ( #60 ) ) ;
#201 = DIRECTION ( 'NONE',  ( 0.0000000000000000000, 1.000000000000000000, 0.0000000000000000000 ) ) ;
#202 = FACE_OUTER_BOUND ( 'NONE', #184, .T. ) ;
#203 = FACE_OUTER_BOUND ( 'NONE', #55, .T. ) ;
#204 = DIRECTION ( 'NONE',  ( 3.491481338843133355E-15, -1.224646799147353207E-16, 1.000000000000000000 ) ) ;
#205 = PLANE ( 'NONE',  #191 ) ;
#206 = EDGE_CURVE ( 'NONE', #85, #85, #63, .T. ) ;
#207 = CALENDAR_DATE ( 2021, 8, 10 ) ;
#208 = DIRECTION ( 'NONE',  ( 1.000000000000000000, 0.0000000000000000000, 0.0000000000000000000 ) ) ;
#209 = CARTESIAN_POINT ( 'NONE',  ( 3.491481338843133355E-14, 0.5799999999999989608, 10.00000000000000000 ) ) ;
#210 = AXIS2_PLACEMENT_3D ( 'NONE', #28, #153, #201 ) ;
#211 = CALENDAR_DATE ( 2021, 8, 10 ) ;
#212 = COORDINATED_UNIVERSAL_TIME_OFFSET ( 1, 0, .AHEAD. ) ;
#213 = CC_DESIGN_SECURITY_CLASSIFICATION ( #59, ( #50 ) ) ;
#214 = MANIFOLD_SOLID_BREP ( 'Corps-Déplacer/Copier1[1]', #154 ) ;
#215 = APPROVAL_STATUS ( 'not_yet_approved' ) ;
#216 = ORIENTED_EDGE ( 'NONE', *, *, #151, .F. ) ;
#217 = APPROVAL_DATE_TIME ( #37, #71 ) ;
#218 = EDGE_LOOP ( 'NONE', ( #145 ) ) ;
#219 = CONICAL_SURFACE ( 'NONE', #18, 0.5799999999999988498, 1.047197551196592746 ) ;
#220 = LOCAL_TIME ( 7, 53, 58.00000000000000000, #171 ) ;
#221 = FACE_OUTER_BOUND ( 'NONE', #218, .T. ) ;
#222 = ADVANCED_BREP_SHAPE_REPRESENTATION ( '50299', ( #214, #135, #148 ), #19 ) ;
#223 = CARTESIAN_POINT ( 'NONE',  ( 3.594287531076566609E-14, -1.260706357264000027E-15, 10.29444863728670967 ) ) ;
ENDSEC;
END-ISO-10303-21;
