ISO-10303-21;
HEADER;
FILE_DESCRIPTION (( 'STEP AP203' ),
    '1' );
FILE_NAME ('50297.step',
    '2021-11-01T10:35:25',
    ( '' ),
    ( '' ),
    'SwSTEP 2.0',
    'SolidWorks 2019',
    '' );
FILE_SCHEMA (( 'CONFIG_CONTROL_DESIGN' ));
ENDSEC;

DATA;
#1 = PERSON_AND_ORGANIZATION ( #111, #184 ) ;
#2 = PERSON_AND_ORGANIZATION ( #111, #184 ) ;
#3 = ADVANCED_FACE ( 'NONE', ( #185, #66 ), #171, .T. ) ;
#4 = PLANE ( 'NONE',  #148 ) ;
#5 = CYLINDRICAL_SURFACE ( 'NONE', #134, 1.499999999999994893 ) ;
#6 = CC_DESIGN_PERSON_AND_ORGANIZATION_ASSIGNMENT ( #2, #199, ( #27 ) ) ;
#7 = CARTESIAN_POINT ( 'NONE',  ( 1.885399922975292327E-14, 1.124819836996386911E-32, 5.400000000000000355 ) ) ;
#8 = APPROVAL_DATE_TIME ( #85, #192 ) ;
#9 = CARTESIAN_POINT ( 'NONE',  ( 1.316288464743861212E-13, -4.616918432785521081E-15, 37.69999999999999574 ) ) ;
#10 = CARTESIAN_POINT ( 'NONE',  ( 1.885399922975292012E-14, -0.9000000000000010214, 5.399999999999999467 ) ) ;
#11 = AXIS2_PLACEMENT_3D ( 'NONE', #188, #102, #160 ) ;
#12 = APPROVAL ( #21, 'UNSPECIFIED' ) ;
#13 = PERSON_AND_ORGANIZATION ( #111, #184 ) ;
#14 = EDGE_LOOP ( 'NONE', ( #64 ) ) ;
#15 = CALENDAR_DATE ( 2021, 1, 11 ) ;
#16 = SECURITY_CLASSIFICATION ( '', '', #167 ) ;
#17 = DATE_TIME_ROLE ( 'creation_date' ) ;
#18 = UNCERTAINTY_MEASURE_WITH_UNIT (LENGTH_MEASURE( 1.000000000000000082E-05 ), #35, 'distance_accuracy_value', 'NONE');
#19 = PERSON_AND_ORGANIZATION_ROLE ( 'creator' ) ;
#20 = ORIENTED_EDGE ( 'NONE', *, *, #197, .F. ) ;
#21 = APPROVAL_STATUS ( 'not_yet_approved' ) ;
#22 = CC_DESIGN_PERSON_AND_ORGANIZATION_ASSIGNMENT ( #83, #151, ( #16 ) ) ;
#23 = AXIS2_PLACEMENT_3D ( 'NONE', #26, #159, #24 ) ;
#24 = DIRECTION ( 'NONE',  ( -4.285855558155652404E-31, -1.000000000000000000, -1.227517819005651305E-16 ) ) ;
#25 = DIRECTION ( 'NONE',  ( -4.275831445896958607E-31, -1.000000000000000000, -1.224646799147353207E-16 ) ) ;
#26 = CARTESIAN_POINT ( 'NONE',  ( -3.857270002340085850E-31, -8.987882689079814825E-33, -1.104766037105085312E-16 ) ) ;
#27 = PRODUCT_DEFINITION_FORMATION_WITH_SPECIFIED_SOURCE ( 'ANY', '', #221, .NOT_KNOWN. ) ;
#28 = FACE_OUTER_BOUND ( 'NONE', #164, .T. ) ;
#29 = CARTESIAN_POINT ( 'NONE',  ( -7.714540004680169948E-31, -0.8999999999999993561, -2.209532074210170624E-16 ) ) ;
#30 = AXIS2_PLACEMENT_3D ( 'NONE', #42, #203, #157 ) ;
#31 = AXIS2_PLACEMENT_3D ( 'NONE', #133, #51, #116 ) ;
#32 = EDGE_CURVE ( 'NONE', #104, #104, #154, .T. ) ;
#33 = COORDINATED_UNIVERSAL_TIME_OFFSET ( 1, 0, .AHEAD. ) ;
#34 = MECHANICAL_CONTEXT ( 'NONE', #56, 'mechanical' ) ;
#35 =( LENGTH_UNIT ( ) NAMED_UNIT ( * ) SI_UNIT ( .MILLI., .METRE. ) );
#36 = CALENDAR_DATE ( 2021, 1, 11 ) ;
#37 = PRODUCT_DEFINITION_SHAPE ( 'NONE', 'NONE',  #101 ) ;
#38 = CLOSED_SHELL ( 'NONE', ( #162, #3, #136 ) ) ;
#39 = DIRECTION ( 'NONE',  ( 3.491481338843133355E-15, -1.224646799147353207E-16, 1.000000000000000000 ) ) ;
#40 = EDGE_CURVE ( 'NONE', #196, #196, #88, .T. ) ;
#41 = DIRECTION ( 'NONE',  ( -3.491481338843133355E-15, 1.224646799147353207E-16, -1.000000000000000000 ) ) ;
#42 = CARTESIAN_POINT ( 'NONE',  ( 1.885399922975292012E-14, -6.628596222630515815E-16, 5.399999999999999467 ) ) ;
#43 = DIRECTION ( 'NONE',  ( 3.491481338843133355E-15, -1.227517819005651059E-16, 1.000000000000000000 ) ) ;
#44 = AXIS2_PLACEMENT_3D ( 'NONE', #90, #41, #92 ) ;
#45 = FACE_OUTER_BOUND ( 'NONE', #63, .T. ) ;
#46 = VERTEX_POINT ( 'NONE', #29 ) ;
#47 = CC_DESIGN_PERSON_AND_ORGANIZATION_ASSIGNMENT ( #155, #110, ( #27 ) ) ;
#48 = LOCAL_TIME ( 11, 35, 25.00000000000000000, #113 ) ;
#49 = DIRECTION ( 'NONE',  ( 0.0000000000000000000, 0.0000000000000000000, 1.000000000000000000 ) ) ;
#50 = APPROVAL_DATE_TIME ( #96, #12 ) ;
#51 = DIRECTION ( 'NONE',  ( 3.491481338843133355E-15, -1.227517819005651059E-16, 1.000000000000000000 ) ) ;
#52 = APPROVAL_ROLE ( '' ) ;
#53 = CC_DESIGN_APPROVAL ( #12, ( #27 ) ) ;
#54 = ORIENTED_EDGE ( 'NONE', *, *, #122, .F. ) ;
#55 = APPLICATION_PROTOCOL_DEFINITION ( 'international standard', 'config_control_design', 1994, #210 ) ;
#56 = APPLICATION_CONTEXT ( 'configuration controlled 3d designs of mechanical parts and assemblies' ) ;
#57 = FACE_OUTER_BOUND ( 'NONE', #218, .T. ) ;
#58 = CLOSED_SHELL ( 'NONE', ( #156, #219, #82, #214, #180 ) ) ;
#59 = DIRECTION ( 'NONE',  ( 0.0000000000000000000, 1.000000000000000000, 0.0000000000000000000 ) ) ;
#60 = CARTESIAN_POINT ( 'NONE',  ( 1.885399922975292012E-14, 0.0000000000000000000, 5.399999999999999467 ) ) ;
#61 = DIRECTION ( 'NONE',  ( 3.491481338843133355E-15, -1.224646799147353207E-16, 1.000000000000000000 ) ) ;
#62 = FACE_BOUND ( 'NONE', #152, .T. ) ;
#63 = EDGE_LOOP ( 'NONE', ( #86 ) ) ;
#64 = ORIENTED_EDGE ( 'NONE', *, *, #40, .T. ) ;
#65 = DATE_AND_TIME ( #98, #194 ) ;
#66 = FACE_OUTER_BOUND ( 'NONE', #149, .T. ) ;
#67 = AXIS2_PLACEMENT_3D ( 'NONE', #74, #39, #73 ) ;
#68 = DATE_TIME_ROLE ( 'classification_date' ) ;
#69 = FACE_OUTER_BOUND ( 'NONE', #150, .T. ) ;
#70 = DIRECTION ( 'NONE',  ( -4.275831445896958607E-31, -1.000000000000000000, -1.224646799147353207E-16 ) ) ;
#71 = EDGE_CURVE ( 'NONE', #46, #46, #95, .T. ) ;
#72 = CIRCLE ( 'NONE', #11, 1.199999999999995959 ) ;
#73 = DIRECTION ( 'NONE',  ( -4.275831445896958607E-31, -1.000000000000000000, -1.224646799147353207E-16 ) ) ;
#74 = CARTESIAN_POINT ( 'NONE',  ( 1.885399922975292327E-14, 1.124819836996386911E-32, 5.400000000000000355 ) ) ;
#75 = DIRECTION ( 'NONE',  ( 4.275831445896958607E-31, 1.000000000000000000, 1.224646799147353207E-16 ) ) ;
#76 = CARTESIAN_POINT ( 'NONE',  ( 1.326762908760390423E-13, 1.199999999999991518, 38.00000000000000000 ) ) ;
#77 = MANIFOLD_SOLID_BREP ( 'Corps-Déplacer/Copier1[1]', #58 ) ;
#78 = MANIFOLD_SOLID_BREP ( 'Corps-Déplacer/Copier1[2]', #38 ) ;
#79 = PERSON_AND_ORGANIZATION ( #111, #184 ) ;
#80 = EDGE_LOOP ( 'NONE', ( #146 ) ) ;
#81 = CARTESIAN_POINT ( 'NONE',  ( 0.0000000000000000000, 0.0000000000000000000, 0.0000000000000000000 ) ) ;
#82 = ADVANCED_FACE ( 'NONE', ( #69 ), #89, .F. ) ;
#83 = PERSON_AND_ORGANIZATION ( #111, #184 ) ;
#84 = ORIENTED_EDGE ( 'NONE', *, *, #122, .T. ) ;
#85 = DATE_AND_TIME ( #170, #48 ) ;
#86 = ORIENTED_EDGE ( 'NONE', *, *, #183, .T. ) ;
#87 = APPROVAL_ROLE ( '' ) ;
#88 = CIRCLE ( 'NONE', #144, 1.499999999999994893 ) ;
#89 = PLANE ( 'NONE',  #44 ) ;
#90 = CARTESIAN_POINT ( 'NONE',  ( 1.326762908760390423E-13, 8.998558695971047118E-33, 38.00000000000000000 ) ) ;
#91 = AXIS2_PLACEMENT_3D ( 'NONE', #191, #126, #195 ) ;
#92 = DIRECTION ( 'NONE',  ( 4.275831445896958607E-31, 1.000000000000000000, 1.224646799147353207E-16 ) ) ;
#93 = DIRECTION ( 'NONE',  ( 3.491481338843133355E-15, -1.227517819005651059E-16, 1.000000000000000000 ) ) ;
#94 = VERTEX_POINT ( 'NONE', #10 ) ;
#95 = CIRCLE ( 'NONE', #23, 0.8999999999999993561 ) ;
#96 = DATE_AND_TIME ( #36, #97 ) ;
#97 = LOCAL_TIME ( 11, 35, 25.00000000000000000, #33 ) ;
#98 = CALENDAR_DATE ( 2021, 1, 11 ) ;
#99 = PERSON_AND_ORGANIZATION ( #111, #184 ) ;
#100 = APPROVAL_DATE_TIME ( #135, #176 ) ;
#101 = PRODUCT_DEFINITION ( 'UNKNOWN', '', #27, #182 ) ;
#102 = DIRECTION ( 'NONE',  ( -3.491481338843133355E-15, 1.224646799147353207E-16, -1.000000000000000000 ) ) ;
#103 = DIRECTION ( 'NONE',  ( -3.491481338843133355E-15, 1.224646799147353207E-16, -1.000000000000000000 ) ) ;
#104 = VERTEX_POINT ( 'NONE', #177 ) ;
#105 = CARTESIAN_POINT ( 'NONE',  ( 1.316288464743861212E-13, 1.499999999999992228, 37.69999999999999574 ) ) ;
#106 = APPROVAL_PERSON_ORGANIZATION ( #13, #12, #87 ) ;
#107 = AXIS2_PLACEMENT_3D ( 'NONE', #7, #119, #25 ) ;
#108 = ORIENTED_EDGE ( 'NONE', *, *, #183, .F. ) ;
#109 = PRODUCT_RELATED_PRODUCT_CATEGORY ( 'detail', '', ( #221 ) ) ;
#110 = PERSON_AND_ORGANIZATION_ROLE ( 'creator' ) ;
#111 = PERSON ( 'UNSPECIFIED', 'UNSPECIFIED', 'UNSPECIFIED', ('UNSPECIFIED'), ('UNSPECIFIED'), ('UNSPECIFIED') ) ;
#112 = ORIENTED_EDGE ( 'NONE', *, *, #71, .F. ) ;
#113 = COORDINATED_UNIVERSAL_TIME_OFFSET ( 1, 0, .AHEAD. ) ;
#114 = LOCAL_TIME ( 11, 35, 25.00000000000000000, #165 ) ;
#115 = APPLICATION_PROTOCOL_DEFINITION ( 'international standard', 'config_control_design', 1994, #56 ) ;
#116 = DIRECTION ( 'NONE',  ( -4.285855558155653280E-31, -1.000000000000000000, -1.227517819005650812E-16 ) ) ;
#117 = CC_DESIGN_PERSON_AND_ORGANIZATION_ASSIGNMENT ( #79, #19, ( #101 ) ) ;
#118 = CALENDAR_DATE ( 2021, 1, 11 ) ;
#119 = DIRECTION ( 'NONE',  ( 3.491481338843133355E-15, -1.224646799147353207E-16, 1.000000000000000000 ) ) ;
#120 = AXIS2_PLACEMENT_3D ( 'NONE', #81, #49, #202 ) ;
#121 = CARTESIAN_POINT ( 'NONE',  ( 0.0000000000000000000, 0.0000000000000000000, 0.0000000000000000000 ) ) ;
#122 = EDGE_CURVE ( 'NONE', #161, #161, #178, .T. ) ;
#123 = DIRECTION ( 'NONE',  ( -4.348708325974019258E-31, -1.000000000000000000, -1.227517819005651059E-16 ) ) ;
#124 = FACE_OUTER_BOUND ( 'NONE', #222, .T. ) ;
#125 = CC_DESIGN_SECURITY_CLASSIFICATION ( #16, ( #27 ) ) ;
#126 = DIRECTION ( 'NONE',  ( -3.491481338843133355E-15, 1.224646799147353207E-16, -1.000000000000000000 ) ) ;
#127 = APPROVAL_PERSON_ORGANIZATION ( #99, #176, #220 ) ;
#128 = CONICAL_SURFACE ( 'NONE', #91, 1.199999999999995959, 0.7853981633974468357 ) ;
#129 =( NAMED_UNIT ( * ) PLANE_ANGLE_UNIT ( ) SI_UNIT ( $, .RADIAN. ) );
#130 = DATE_AND_TIME ( #15, #163 ) ;
#131 = ORIENTED_EDGE ( 'NONE', *, *, #32, .F. ) ;
#132 = PERSON_AND_ORGANIZATION ( #111, #184 ) ;
#133 = CARTESIAN_POINT ( 'NONE',  ( -6.413731847436034514E-31, 0.0000000000000000000, -1.836965810494968570E-16 ) ) ;
#134 = AXIS2_PLACEMENT_3D ( 'NONE', #121, #190, #75 ) ;
#135 = DATE_AND_TIME ( #118, #114 ) ;
#136 = ADVANCED_FACE ( 'NONE', ( #28 ), #4, .F. ) ;
#137 = FACE_OUTER_BOUND ( 'NONE', #14, .T. ) ;
#138 = FACE_OUTER_BOUND ( 'NONE', #198, .T. ) ;
#139 = APPROVAL_PERSON_ORGANIZATION ( #132, #192, #52 ) ;
#140 = CARTESIAN_POINT ( 'NONE',  ( 2.946718364918542879E-14, -3.731331124789344482E-16, 8.439736830714117843 ) ) ;
#141 = PLANE ( 'NONE',  #67 ) ;
#142 = CARTESIAN_POINT ( 'NONE',  ( 2.946718364918542879E-14, 1.499999999999994449, 8.439736830714117843 ) ) ;
#143 = CC_DESIGN_PERSON_AND_ORGANIZATION_ASSIGNMENT ( #1, #181, ( #221 ) ) ;
#144 = AXIS2_PLACEMENT_3D ( 'NONE', #140, #174, #59 ) ;
#145 = CC_DESIGN_APPROVAL ( #192, ( #16 ) ) ;
#146 = ORIENTED_EDGE ( 'NONE', *, *, #71, .T. ) ;
#147 = APPROVAL_STATUS ( 'not_yet_approved' ) ;
#148 = AXIS2_PLACEMENT_3D ( 'NONE', #175, #61, #70 ) ;
#149 = EDGE_LOOP ( 'NONE', ( #131 ) ) ;
#150 = EDGE_LOOP ( 'NONE', ( #20 ) ) ;
#151 = PERSON_AND_ORGANIZATION_ROLE ( 'classification_officer' ) ;
#152 = EDGE_LOOP ( 'NONE', ( #201 ) ) ;
#153 = EDGE_LOOP ( 'NONE', ( #54 ) ) ;
#154 = CIRCLE ( 'NONE', #30, 0.9000000000000003553 ) ;
#155 = PERSON_AND_ORGANIZATION ( #111, #184 ) ;
#156 = ADVANCED_FACE ( 'NONE', ( #205, #138 ), #5, .T. ) ;
#157 = DIRECTION ( 'NONE',  ( 0.0000000000000000000, -1.000000000000000000, 0.0000000000000000000 ) ) ;
#158 = ADVANCED_BREP_SHAPE_REPRESENTATION ( '50297', ( #77, #78, #120 ), #217 ) ;
#159 = DIRECTION ( 'NONE',  ( 3.491481338843133355E-15, -1.227517819005651059E-16, 1.000000000000000000 ) ) ;
#160 = DIRECTION ( 'NONE',  ( 0.0000000000000000000, 1.000000000000000000, 0.0000000000000000000 ) ) ;
#161 = VERTEX_POINT ( 'NONE', #105 ) ;
#162 = ADVANCED_FACE ( 'NONE', ( #124 ), #141, .T. ) ;
#163 = LOCAL_TIME ( 11, 35, 25.00000000000000000, #187 ) ;
#164 = EDGE_LOOP ( 'NONE', ( #112 ) ) ;
#165 = COORDINATED_UNIVERSAL_TIME_OFFSET ( 1, 0, .AHEAD. ) ;
#166 = CIRCLE ( 'NONE', #179, 0.9000000000000003553 ) ;
#167 = SECURITY_CLASSIFICATION_LEVEL ( 'unclassified' ) ;
#168 = ORIENTED_EDGE ( 'NONE', *, *, #32, .T. ) ;
#169 = CC_DESIGN_DATE_AND_TIME_ASSIGNMENT ( #65, #68, ( #16 ) ) ;
#170 = CALENDAR_DATE ( 2021, 1, 11 ) ;
#171 = CYLINDRICAL_SURFACE ( 'NONE', #31, 0.8999999999999999112 ) ;
#172 = AXIS2_PLACEMENT_3D ( 'NONE', #9, #103, #209 ) ;
#173 = PLANE ( 'NONE',  #107 ) ;
#174 = DIRECTION ( 'NONE',  ( -3.491481338843133355E-15, 1.227517819005651059E-16, -1.000000000000000000 ) ) ;
#175 = CARTESIAN_POINT ( 'NONE',  ( -8.551680453529350800E-31, 2.999525725151307090E-32, -2.449298628175645296E-16 ) ) ;
#176 = APPROVAL ( #216, 'UNSPECIFIED' ) ;
#177 = CARTESIAN_POINT ( 'NONE',  ( 1.885399922975292012E-14, -0.9000000000000010214, 5.399999999999999467 ) ) ;
#178 = CIRCLE ( 'NONE', #172, 1.499999999999996669 ) ;
#179 = AXIS2_PLACEMENT_3D ( 'NONE', #193, #43, #211 ) ;
#180 = ADVANCED_FACE ( 'NONE', ( #57 ), #173, .F. ) ;
#181 = PERSON_AND_ORGANIZATION_ROLE ( 'design_owner' ) ;
#182 = DESIGN_CONTEXT ( 'detailed design', #210, 'design' ) ;
#183 = EDGE_CURVE ( 'NONE', #94, #94, #166, .T. ) ;
#184 = ORGANIZATION ( 'UNSPECIFIED', 'UNSPECIFIED', '' ) ;
#185 = FACE_OUTER_BOUND ( 'NONE', #80, .T. ) ;
#186 =( NAMED_UNIT ( * ) SI_UNIT ( $, .STERADIAN. ) SOLID_ANGLE_UNIT ( ) );
#187 = COORDINATED_UNIVERSAL_TIME_OFFSET ( 1, 0, .AHEAD. ) ;
#188 = CARTESIAN_POINT ( 'NONE',  ( 1.326762908760390423E-13, -4.653657836759941941E-15, 38.00000000000000000 ) ) ;
#189 = TOROIDAL_SURFACE ( 'NONE', #212, 8.899999999999998579, 7.999999999999998224 ) ;
#190 = DIRECTION ( 'NONE',  ( -3.491481338843133355E-15, 1.224646799147353207E-16, -1.000000000000000000 ) ) ;
#191 = CARTESIAN_POINT ( 'NONE',  ( 1.326762908760390423E-13, -4.653657836759941941E-15, 38.00000000000000000 ) ) ;
#192 = APPROVAL ( #147, 'UNSPECIFIED' ) ;
#193 = CARTESIAN_POINT ( 'NONE',  ( 1.885399922975292012E-14, -6.628596222630515815E-16, 5.399999999999999467 ) ) ;
#194 = LOCAL_TIME ( 11, 35, 25.00000000000000000, #223 ) ;
#195 = DIRECTION ( 'NONE',  ( 0.0000000000000000000, 1.000000000000000000, 0.0000000000000000000 ) ) ;
#196 = VERTEX_POINT ( 'NONE', #142 ) ;
#197 = EDGE_CURVE ( 'NONE', #213, #213, #72, .T. ) ;
#198 = EDGE_LOOP ( 'NONE', ( #215 ) ) ;
#199 = PERSON_AND_ORGANIZATION_ROLE ( 'design_supplier' ) ;
#200 = EDGE_LOOP ( 'NONE', ( #84 ) ) ;
#201 = ORIENTED_EDGE ( 'NONE', *, *, #197, .T. ) ;
#202 = DIRECTION ( 'NONE',  ( 1.000000000000000000, 0.0000000000000000000, 0.0000000000000000000 ) ) ;
#203 = DIRECTION ( 'NONE',  ( 3.491481338843133355E-15, -1.227517819005651059E-16, 1.000000000000000000 ) ) ;
#204 = CC_DESIGN_DATE_AND_TIME_ASSIGNMENT ( #130, #17, ( #101 ) ) ;
#205 = FACE_OUTER_BOUND ( 'NONE', #200, .T. ) ;
#206 = CC_DESIGN_APPROVAL ( #176, ( #101 ) ) ;
#207 = SHAPE_DEFINITION_REPRESENTATION ( #37, #158 ) ;
#208 = FACE_OUTER_BOUND ( 'NONE', #153, .T. ) ;
#209 = DIRECTION ( 'NONE',  ( 0.0000000000000000000, 1.000000000000000000, 0.0000000000000000000 ) ) ;
#210 = APPLICATION_CONTEXT ( 'configuration controlled 3d designs of mechanical parts and assemblies' ) ;
#211 = DIRECTION ( 'NONE',  ( 0.0000000000000000000, -1.000000000000000000, 0.0000000000000000000 ) ) ;
#212 = AXIS2_PLACEMENT_3D ( 'NONE', #60, #93, #123 ) ;
#213 = VERTEX_POINT ( 'NONE', #76 ) ;
#214 = ADVANCED_FACE ( 'NONE', ( #45, #137 ), #189, .F. ) ;
#215 = ORIENTED_EDGE ( 'NONE', *, *, #40, .F. ) ;
#216 = APPROVAL_STATUS ( 'not_yet_approved' ) ;
#217 =( GEOMETRIC_REPRESENTATION_CONTEXT ( 3 ) GLOBAL_UNCERTAINTY_ASSIGNED_CONTEXT ( ( #18 ) ) GLOBAL_UNIT_ASSIGNED_CONTEXT ( ( #35, #129, #186 ) ) REPRESENTATION_CONTEXT ( 'NONE', 'WORKASPACE' ) );
#218 = EDGE_LOOP ( 'NONE', ( #108 ) ) ;
#219 = ADVANCED_FACE ( 'NONE', ( #208, #62 ), #128, .T. ) ;
#220 = APPROVAL_ROLE ( '' ) ;
#221 = PRODUCT ( '50297', '50297', '', ( #34 ) ) ;
#222 = EDGE_LOOP ( 'NONE', ( #168 ) ) ;
#223 = COORDINATED_UNIVERSAL_TIME_OFFSET ( 1, 0, .AHEAD. ) ;
ENDSEC;
END-ISO-10303-21;
