ISO-10303-21;
HEADER;
FILE_DESCRIPTION (( 'STEP AP203' ),
    '1' );
FILE_NAME ('50233.step',
    '2021-10-08T05:53:57',
    ( '' ),
    ( '' ),
    'SwSTEP 2.0',
    'SolidWorks 2019',
    '' );
FILE_SCHEMA (( 'CONFIG_CONTROL_DESIGN' ));
ENDSEC;

DATA;
#1 = CLOSED_SHELL ( 'NONE', ( #38, #180, #186 ) ) ;
#2 = APPROVAL ( #108, 'UNSPECIFIED' ) ;
#3 = FACE_OUTER_BOUND ( 'NONE', #170, .T. ) ;
#4 = DIRECTION ( 'NONE',  ( -3.491481338843133355E-15, 1.224646799147353207E-16, -1.000000000000000000 ) ) ;
#5 = FACE_BOUND ( 'NONE', #223, .T. ) ;
#6 = APPROVAL_PERSON_ORGANIZATION ( #33, #197, #150 ) ;
#7 = CARTESIAN_POINT ( 'NONE',  ( 1.040461438975253740E-13, 0.7499999999999962252, 29.80000000000000071 ) ) ;
#8 = DIRECTION ( 'NONE',  ( 0.0000000000000000000, 0.0000000000000000000, 1.000000000000000000 ) ) ;
#9 = CALENDAR_DATE ( 2021, 8, 10 ) ;
#10 = VERTEX_POINT ( 'NONE', #162 ) ;
#11 = MANIFOLD_SOLID_BREP ( 'Corps-Déplacer/Copier1[2]', #1 ) ;
#12 = AXIS2_PLACEMENT_3D ( 'NONE', #155, #121, #196 ) ;
#13 = AXIS2_PLACEMENT_3D ( 'NONE', #140, #198, #178 ) ;
#14 = DATE_AND_TIME ( #16, #45 ) ;
#15 = EDGE_LOOP ( 'NONE', ( #132 ) ) ;
#16 = CALENDAR_DATE ( 2021, 8, 10 ) ;
#17 = CC_DESIGN_PERSON_AND_ORGANIZATION_ASSIGNMENT ( #166, #77, ( #189 ) ) ;
#18 = ORIENTED_EDGE ( 'NONE', *, *, #163, .F. ) ;
#19 = DATE_AND_TIME ( #65, #137 ) ;
#20 = ORIENTED_EDGE ( 'NONE', *, *, #115, .T. ) ;
#21 = CARTESIAN_POINT ( 'NONE',  ( 1.219563652965252387E-15, -4.277653462857164386E-17, 0.3492969128597268602 ) ) ;
#22 = CARTESIAN_POINT ( 'NONE',  ( 3.579168973395179087E-14, -1.255403481070375398E-15, 10.25114736709748620 ) ) ;
#23 = FACE_OUTER_BOUND ( 'NONE', #188, .T. ) ;
#24 = DIRECTION ( 'NONE',  ( 0.0000000000000000000, 1.000000000000000000, 0.0000000000000000000 ) ) ;
#25 = FACE_OUTER_BOUND ( 'NONE', #80, .T. ) ;
#26 = AXIS2_PLACEMENT_3D ( 'NONE', #216, #210, #57 ) ;
#27 = PERSON_AND_ORGANIZATION ( #125, #35 ) ;
#28 = AXIS2_PLACEMENT_3D ( 'NONE', #86, #100, #55 ) ;
#29 = DATE_AND_TIME ( #9, #62 ) ;
#30 = ORIENTED_EDGE ( 'NONE', *, *, #115, .F. ) ;
#31 = CC_DESIGN_PERSON_AND_ORGANIZATION_ASSIGNMENT ( #205, #78, ( #194 ) ) ;
#32 = EDGE_LOOP ( 'NONE', ( #168 ) ) ;
#33 = PERSON_AND_ORGANIZATION ( #125, #35 ) ;
#34 = PRODUCT_DEFINITION_SHAPE ( 'NONE', 'NONE',  #172 ) ;
#35 = ORGANIZATION ( 'UNSPECIFIED', 'UNSPECIFIED', '' ) ;
#36 = DIRECTION ( 'NONE',  ( -3.491481338843133355E-15, 1.224646799147353207E-16, -1.000000000000000000 ) ) ;
#37 = UNCERTAINTY_MEASURE_WITH_UNIT (LENGTH_MEASURE( 1.000000000000000082E-05 ), #161, 'distance_accuracy_value', 'NONE');
#38 = ADVANCED_FACE ( 'NONE', ( #23 ), #151, .T. ) ;
#39 = DIRECTION ( 'NONE',  ( -4.275831445896958607E-31, -1.000000000000000000, -1.224646799147353207E-16 ) ) ;
#40 = DIRECTION ( 'NONE',  ( 0.0000000000000000000, -1.000000000000000000, 0.0000000000000000000 ) ) ;
#41 = DIRECTION ( 'NONE',  ( -3.491481338843133355E-15, 1.224646799147353207E-16, -1.000000000000000000 ) ) ;
#42 = PLANE ( 'NONE',  #117 ) ;
#43 = VERTEX_POINT ( 'NONE', #92 ) ;
#44 = LOCAL_TIME ( 7, 53, 57.00000000000000000, #124 ) ;
#45 = LOCAL_TIME ( 7, 53, 57.00000000000000000, #147 ) ;
#46 = PERSON_AND_ORGANIZATION ( #125, #35 ) ;
#47 = APPROVAL_DATE_TIME ( #202, #87 ) ;
#48 = ADVANCED_BREP_SHAPE_REPRESENTATION ( '50233', ( #81, #11, #98 ), #84 ) ;
#49 = ORIENTED_EDGE ( 'NONE', *, *, #163, .T. ) ;
#50 = EDGE_LOOP ( 'NONE', ( #112 ) ) ;
#51 = PRODUCT_RELATED_PRODUCT_CATEGORY ( 'detail', '', ( #134 ) ) ;
#52 = DIRECTION ( 'NONE',  ( 3.491481338843133355E-15, -1.224646799147353207E-16, 1.000000000000000000 ) ) ;
#53 = DIRECTION ( 'NONE',  ( 0.0000000000000000000, 1.000000000000000000, 0.0000000000000000000 ) ) ;
#54 = DIRECTION ( 'NONE',  ( 3.491481338843133355E-15, -1.224646799147353207E-16, 1.000000000000000000 ) ) ;
#55 = DIRECTION ( 'NONE',  ( 0.0000000000000000000, 1.000000000000000000, 0.0000000000000000000 ) ) ;
#56 = CC_DESIGN_APPROVAL ( #197, ( #194 ) ) ;
#57 = DIRECTION ( 'NONE',  ( 0.0000000000000000000, 1.000000000000000000, 0.0000000000000000000 ) ) ;
#58 =( NAMED_UNIT ( * ) SI_UNIT ( $, .STERADIAN. ) SOLID_ANGLE_UNIT ( ) );
#59 = DATE_TIME_ROLE ( 'creation_date' ) ;
#60 = APPROVAL_ROLE ( '' ) ;
#61 = CALENDAR_DATE ( 2021, 8, 10 ) ;
#62 = LOCAL_TIME ( 7, 53, 57.00000000000000000, #204 ) ;
#63 = CC_DESIGN_APPROVAL ( #87, ( #189 ) ) ;
#64 = EDGE_LOOP ( 'NONE', ( #30 ) ) ;
#65 = CALENDAR_DATE ( 2021, 8, 10 ) ;
#66 = ORIENTED_EDGE ( 'NONE', *, *, #72, .F. ) ;
#67 = CARTESIAN_POINT ( 'NONE',  ( 3.579168973395179087E-14, -1.255403481070375398E-15, 10.25114736709748620 ) ) ;
#68 = CONICAL_SURFACE ( 'NONE', #211, 0.5500000000000000444, 0.7853981633974510546 ) ;
#69 = FACE_OUTER_BOUND ( 'NONE', #50, .T. ) ;
#70 = CARTESIAN_POINT ( 'NONE',  ( 3.491481338843133355E-14, 4.536773342552098326E-33, 10.00000000000000000 ) ) ;
#71 = FACE_BOUND ( 'NONE', #15, .T. ) ;
#72 = EDGE_CURVE ( 'NONE', #123, #123, #159, .T. ) ;
#73 = FACE_OUTER_BOUND ( 'NONE', #114, .T. ) ;
#74 = AXIS2_PLACEMENT_3D ( 'NONE', #22, #4, #139 ) ;
#75 = ADVANCED_FACE ( 'NONE', ( #73 ), #42, .F. ) ;
#76 = APPROVAL_ROLE ( '' ) ;
#77 = PERSON_AND_ORGANIZATION_ROLE ( 'design_supplier' ) ;
#78 = PERSON_AND_ORGANIZATION_ROLE ( 'classification_officer' ) ;
#79 = DATE_TIME_ROLE ( 'classification_date' ) ;
#80 = EDGE_LOOP ( 'NONE', ( #209 ) ) ;
#81 = MANIFOLD_SOLID_BREP ( 'Corps-Déplacer/Copier1[1]', #165 ) ;
#82 = AXIS2_PLACEMENT_3D ( 'NONE', #212, #191, #39 ) ;
#83 = FACE_OUTER_BOUND ( 'NONE', #64, .T. ) ;
#84 =( GEOMETRIC_REPRESENTATION_CONTEXT ( 3 ) GLOBAL_UNCERTAINTY_ASSIGNED_CONTEXT ( ( #37 ) ) GLOBAL_UNIT_ASSIGNED_CONTEXT ( ( #161, #181, #58 ) ) REPRESENTATION_CONTEXT ( 'NONE', 'WORKASPACE' ) );
#85 = PLANE ( 'NONE',  #82 ) ;
#86 = CARTESIAN_POINT ( 'NONE',  ( 3.491481338843133355E-14, -1.224646799147353256E-15, 10.00000000000000000 ) ) ;
#87 = APPROVAL ( #107, 'UNSPECIFIED' ) ;
#88 = CARTESIAN_POINT ( 'NONE',  ( 3.579168973395179087E-14, 0.7499999999999963363, 10.25114736709748620 ) ) ;
#89 = APPROVAL_PERSON_ORGANIZATION ( #126, #87, #76 ) ;
#90 = PERSON_AND_ORGANIZATION_ROLE ( 'design_owner' ) ;
#91 = APPLICATION_PROTOCOL_DEFINITION ( 'international standard', 'config_control_design', 1994, #154 ) ;
#92 = CARTESIAN_POINT ( 'NONE',  ( 1.219563652965252584E-15, 0.6049999999999985389, 0.3492969128597269157 ) ) ;
#93 = SHAPE_DEFINITION_REPRESENTATION ( #34, #48 ) ;
#94 = EDGE_LOOP ( 'NONE', ( #171 ) ) ;
#95 = AXIS2_PLACEMENT_3D ( 'NONE', #21, #52, #158 ) ;
#96 = APPROVAL_DATE_TIME ( #14, #197 ) ;
#97 = EDGE_LOOP ( 'NONE', ( #18 ) ) ;
#98 = AXIS2_PLACEMENT_3D ( 'NONE', #164, #8, #179 ) ;
#99 = CC_DESIGN_PERSON_AND_ORGANIZATION_ASSIGNMENT ( #27, #129, ( #189 ) ) ;
#100 = DIRECTION ( 'NONE',  ( -3.491481338843133355E-15, 1.224646799147353207E-16, -1.000000000000000000 ) ) ;
#101 = CARTESIAN_POINT ( 'NONE',  ( 3.491481338843133355E-14, -1.224646799147353256E-15, 10.00000000000000000 ) ) ;
#102 = DIRECTION ( 'NONE',  ( 3.491481338843133355E-15, -1.224646799147353207E-16, 1.000000000000000000 ) ) ;
#103 = CYLINDRICAL_SURFACE ( 'NONE', #12, 0.6049999999999989830 ) ;
#104 = DIRECTION ( 'NONE',  ( 4.275831445896958607E-31, 1.000000000000000000, 1.224646799147353207E-16 ) ) ;
#105 = CARTESIAN_POINT ( 'NONE',  ( 1.047444401652940007E-13, 0.5499999999999963807, 30.00000000000000000 ) ) ;
#106 = AXIS2_PLACEMENT_3D ( 'NONE', #120, #190, #104 ) ;
#107 = APPROVAL_STATUS ( 'not_yet_approved' ) ;
#108 = APPROVAL_STATUS ( 'not_yet_approved' ) ;
#109 = DATE_AND_TIME ( #61, #44 ) ;
#110 = AXIS2_PLACEMENT_3D ( 'NONE', #101, #41, #24 ) ;
#111 = VERTEX_POINT ( 'NONE', #105 ) ;
#112 = ORIENTED_EDGE ( 'NONE', *, *, #195, .F. ) ;
#113 = CC_DESIGN_APPROVAL ( #2, ( #172 ) ) ;
#114 = EDGE_LOOP ( 'NONE', ( #208 ) ) ;
#115 = EDGE_CURVE ( 'NONE', #43, #43, #176, .T. ) ;
#116 = DESIGN_CONTEXT ( 'detailed design', #201, 'design' ) ;
#117 = AXIS2_PLACEMENT_3D ( 'NONE', #70, #54, #141 ) ;
#118 = CARTESIAN_POINT ( 'NONE',  ( 1.219563652965252387E-15, -4.277653462857164386E-17, 0.3492969128597268602 ) ) ;
#119 = CARTESIAN_POINT ( 'NONE',  ( 1.047444401652940007E-13, -3.673940397442059178E-15, 30.00000000000000000 ) ) ;
#120 = CARTESIAN_POINT ( 'NONE',  ( 1.047444401652940007E-13, 4.124339402320052999E-33, 30.00000000000000000 ) ) ;
#121 = DIRECTION ( 'NONE',  ( -3.491481338843133355E-15, 1.224646799147353207E-16, -1.000000000000000000 ) ) ;
#122 = FACE_OUTER_BOUND ( 'NONE', #97, .T. ) ;
#123 = VERTEX_POINT ( 'NONE', #127 ) ;
#124 = COORDINATED_UNIVERSAL_TIME_OFFSET ( 1, 0, .AHEAD. ) ;
#125 = PERSON ( 'UNSPECIFIED', 'UNSPECIFIED', 'UNSPECIFIED', ('UNSPECIFIED'), ('UNSPECIFIED'), ('UNSPECIFIED') ) ;
#126 = PERSON_AND_ORGANIZATION ( #125, #35 ) ;
#127 = CARTESIAN_POINT ( 'NONE',  ( 3.491481338843133355E-14, 0.6049999999999983169, 10.00000000000000000 ) ) ;
#128 = CC_DESIGN_PERSON_AND_ORGANIZATION_ASSIGNMENT ( #46, #184, ( #172 ) ) ;
#129 = PERSON_AND_ORGANIZATION_ROLE ( 'creator' ) ;
#130 = EDGE_CURVE ( 'NONE', #167, #167, #142, .T. ) ;
#131 = CIRCLE ( 'NONE', #74, 0.7499999999999976685 ) ;
#132 = ORIENTED_EDGE ( 'NONE', *, *, #192, .F. ) ;
#133 = ADVANCED_FACE ( 'NONE', ( #25, #5 ), #68, .T. ) ;
#134 = PRODUCT ( '50233', '50233', '', ( #199 ) ) ;
#135 = CARTESIAN_POINT ( 'NONE',  ( 1.047444401652940007E-13, -3.673940397442059178E-15, 30.00000000000000000 ) ) ;
#136 = ADVANCED_FACE ( 'NONE', ( #71, #174 ), #156, .T. ) ;
#137 = LOCAL_TIME ( 7, 53, 57.00000000000000000, #222 ) ;
#138 = FACE_OUTER_BOUND ( 'NONE', #94, .T. ) ;
#139 = DIRECTION ( 'NONE',  ( 0.0000000000000000000, 1.000000000000000000, 0.0000000000000000000 ) ) ;
#140 = CARTESIAN_POINT ( 'NONE',  ( 0.0000000000000000000, 0.0000000000000000000, 0.0000000000000000000 ) ) ;
#141 = DIRECTION ( 'NONE',  ( -4.275831445896958607E-31, -1.000000000000000000, -1.224646799147353207E-16 ) ) ;
#142 = CIRCLE ( 'NONE', #26, 0.7499999999999998890 ) ;
#143 = CALENDAR_DATE ( 2021, 8, 10 ) ;
#144 = SECURITY_CLASSIFICATION_LEVEL ( 'unclassified' ) ;
#145 = CC_DESIGN_PERSON_AND_ORGANIZATION_ASSIGNMENT ( #182, #90, ( #134 ) ) ;
#146 = COORDINATED_UNIVERSAL_TIME_OFFSET ( 1, 0, .AHEAD. ) ;
#147 = COORDINATED_UNIVERSAL_TIME_OFFSET ( 1, 0, .AHEAD. ) ;
#148 = ADVANCED_FACE ( 'NONE', ( #122 ), #157, .F. ) ;
#149 = APPROVAL_STATUS ( 'not_yet_approved' ) ;
#150 = APPROVAL_ROLE ( '' ) ;
#151 = CONICAL_SURFACE ( 'NONE', #95, 0.6049999999999985389, 1.047197551196592746 ) ;
#152 = CC_DESIGN_DATE_AND_TIME_ASSIGNMENT ( #19, #79, ( #194 ) ) ;
#153 = DIRECTION ( 'NONE',  ( -3.491481338843133355E-15, 1.224646799147353207E-16, -1.000000000000000000 ) ) ;
#154 = APPLICATION_CONTEXT ( 'configuration controlled 3d designs of mechanical parts and assemblies' ) ;
#155 = CARTESIAN_POINT ( 'NONE',  ( 0.0000000000000000000, 0.0000000000000000000, 0.0000000000000000000 ) ) ;
#156 = CONICAL_SURFACE ( 'NONE', #215, 0.7499999999999976685, 0.5235987755982948189 ) ;
#157 = PLANE ( 'NONE',  #106 ) ;
#158 = DIRECTION ( 'NONE',  ( -3.183355279978910108E-31, -1.000000000000000000, -8.960348532938075330E-17 ) ) ;
#159 = CIRCLE ( 'NONE', #28, 0.6049999999999995381 ) ;
#160 = ADVANCED_FACE ( 'NONE', ( #69, #175 ), #177, .T. ) ;
#161 =( LENGTH_UNIT ( ) NAMED_UNIT ( * ) SI_UNIT ( .MILLI., .METRE. ) );
#162 = CARTESIAN_POINT ( 'NONE',  ( 3.491481338843133355E-14, 0.6049999999999983169, 10.00000000000000000 ) ) ;
#163 = EDGE_CURVE ( 'NONE', #111, #111, #183, .T. ) ;
#164 = CARTESIAN_POINT ( 'NONE',  ( 0.0000000000000000000, 0.0000000000000000000, 0.0000000000000000000 ) ) ;
#165 = CLOSED_SHELL ( 'NONE', ( #75, #136, #160, #133, #148 ) ) ;
#166 = PERSON_AND_ORGANIZATION ( #125, #35 ) ;
#167 = VERTEX_POINT ( 'NONE', #7 ) ;
#168 = ORIENTED_EDGE ( 'NONE', *, *, #130, .T. ) ;
#169 = CC_DESIGN_SECURITY_CLASSIFICATION ( #194, ( #189 ) ) ;
#170 = EDGE_LOOP ( 'NONE', ( #66 ) ) ;
#171 = ORIENTED_EDGE ( 'NONE', *, *, #72, .T. ) ;
#172 = PRODUCT_DEFINITION ( 'UNKNOWN', '', #189, #116 ) ;
#173 = EDGE_LOOP ( 'NONE', ( #206 ) ) ;
#174 = FACE_OUTER_BOUND ( 'NONE', #173, .T. ) ;
#175 = FACE_OUTER_BOUND ( 'NONE', #32, .T. ) ;
#176 = CIRCLE ( 'NONE', #207, 0.6049999999999985389 ) ;
#177 = CYLINDRICAL_SURFACE ( 'NONE', #13, 0.7499999999999986677 ) ;
#178 = DIRECTION ( 'NONE',  ( 4.275831445896959482E-31, 1.000000000000000000, 1.224646799147353207E-16 ) ) ;
#179 = DIRECTION ( 'NONE',  ( 1.000000000000000000, 0.0000000000000000000, 0.0000000000000000000 ) ) ;
#180 = ADVANCED_FACE ( 'NONE', ( #83, #138 ), #103, .T. ) ;
#181 =( NAMED_UNIT ( * ) PLANE_ANGLE_UNIT ( ) SI_UNIT ( $, .RADIAN. ) );
#182 = PERSON_AND_ORGANIZATION ( #125, #35 ) ;
#183 = CIRCLE ( 'NONE', #203, 0.5500000000000000444 ) ;
#184 = PERSON_AND_ORGANIZATION_ROLE ( 'creator' ) ;
#185 = VERTEX_POINT ( 'NONE', #88 ) ;
#186 = ADVANCED_FACE ( 'NONE', ( #3 ), #85, .T. ) ;
#187 = CIRCLE ( 'NONE', #110, 0.6049999999999995381 ) ;
#188 = EDGE_LOOP ( 'NONE', ( #20 ) ) ;
#189 = PRODUCT_DEFINITION_FORMATION_WITH_SPECIFIED_SOURCE ( 'ANY', '', #134, .NOT_KNOWN. ) ;
#190 = DIRECTION ( 'NONE',  ( -3.491481338843133355E-15, 1.224646799147353207E-16, -1.000000000000000000 ) ) ;
#191 = DIRECTION ( 'NONE',  ( 3.491481338843133355E-15, -1.224646799147353207E-16, 1.000000000000000000 ) ) ;
#192 = EDGE_CURVE ( 'NONE', #10, #10, #187, .T. ) ;
#193 = DIRECTION ( 'NONE',  ( -3.491481338843133355E-15, 1.224646799147353207E-16, -1.000000000000000000 ) ) ;
#194 = SECURITY_CLASSIFICATION ( '', '', #144 ) ;
#195 = EDGE_CURVE ( 'NONE', #185, #185, #131, .T. ) ;
#196 = DIRECTION ( 'NONE',  ( 4.275831445896958607E-31, 1.000000000000000000, 1.224646799147353454E-16 ) ) ;
#197 = APPROVAL ( #149, 'UNSPECIFIED' ) ;
#198 = DIRECTION ( 'NONE',  ( -3.491481338843133355E-15, 1.224646799147353207E-16, -1.000000000000000000 ) ) ;
#199 = MECHANICAL_CONTEXT ( 'NONE', #154, 'mechanical' ) ;
#200 = APPROVAL_DATE_TIME ( #109, #2 ) ;
#201 = APPLICATION_CONTEXT ( 'configuration controlled 3d designs of mechanical parts and assemblies' ) ;
#202 = DATE_AND_TIME ( #143, #221 ) ;
#203 = AXIS2_PLACEMENT_3D ( 'NONE', #119, #36, #214 ) ;
#204 = COORDINATED_UNIVERSAL_TIME_OFFSET ( 1, 0, .AHEAD. ) ;
#205 = PERSON_AND_ORGANIZATION ( #125, #35 ) ;
#206 = ORIENTED_EDGE ( 'NONE', *, *, #195, .T. ) ;
#207 = AXIS2_PLACEMENT_3D ( 'NONE', #118, #193, #213 ) ;
#208 = ORIENTED_EDGE ( 'NONE', *, *, #192, .T. ) ;
#209 = ORIENTED_EDGE ( 'NONE', *, *, #130, .F. ) ;
#210 = DIRECTION ( 'NONE',  ( -3.491481338843133355E-15, 1.224646799147353207E-16, -1.000000000000000000 ) ) ;
#211 = AXIS2_PLACEMENT_3D ( 'NONE', #135, #153, #53 ) ;
#212 = CARTESIAN_POINT ( 'NONE',  ( 3.491481338843133355E-14, 4.536773342552098326E-33, 10.00000000000000000 ) ) ;
#213 = DIRECTION ( 'NONE',  ( 3.183355279978910108E-31, 1.000000000000000000, 8.960348532938075330E-17 ) ) ;
#214 = DIRECTION ( 'NONE',  ( 0.0000000000000000000, 1.000000000000000000, 0.0000000000000000000 ) ) ;
#215 = AXIS2_PLACEMENT_3D ( 'NONE', #67, #102, #40 ) ;
#216 = CARTESIAN_POINT ( 'NONE',  ( 1.040461438975253740E-13, -3.649447461459112464E-15, 29.80000000000000071 ) ) ;
#217 = PERSON_AND_ORGANIZATION ( #125, #35 ) ;
#218 = APPROVAL_PERSON_ORGANIZATION ( #217, #2, #60 ) ;
#219 = APPLICATION_PROTOCOL_DEFINITION ( 'international standard', 'config_control_design', 1994, #201 ) ;
#220 = CC_DESIGN_DATE_AND_TIME_ASSIGNMENT ( #29, #59, ( #172 ) ) ;
#221 = LOCAL_TIME ( 7, 53, 57.00000000000000000, #146 ) ;
#222 = COORDINATED_UNIVERSAL_TIME_OFFSET ( 1, 0, .AHEAD. ) ;
#223 = EDGE_LOOP ( 'NONE', ( #49 ) ) ;
ENDSEC;
END-ISO-10303-21;
