ISO-10303-21;
HEADER;
FILE_DESCRIPTION (( 'STEP AP203' ),
    '1' );
FILE_NAME ('50158.step',
    '2021-10-07T13:48:19',
    ( '' ),
    ( '' ),
    'SwSTEP 2.0',
    'SolidWorks 2019',
    '' );
FILE_SCHEMA (( 'CONFIG_CONTROL_DESIGN' ));
ENDSEC;

DATA;
#1 = DIRECTION ( 'NONE',  ( -3.491481338843133355E-15, 1.224646799147353207E-16, -1.000000000000000000 ) ) ;
#2 = APPROVAL_PERSON_ORGANIZATION ( #197, #92, #30 ) ;
#3 = CARTESIAN_POINT ( 'NONE',  ( 1.326762908760390423E-13, -4.653657836759941941E-15, 38.00000000000000000 ) ) ;
#4 = CARTESIAN_POINT ( 'NONE',  ( 2.024467361230152477E-15, -7.100875626418987835E-17, 0.5798304973615979740 ) ) ;
#5 = CIRCLE ( 'NONE', #116, 0.9649999999999935296 ) ;
#6 = MANIFOLD_SOLID_BREP ( 'Corps-Déplacer/Copier1[2]', #141 ) ;
#7 = DIRECTION ( 'NONE',  ( -3.491481338843133355E-15, 1.224646799147353207E-16, -1.000000000000000000 ) ) ;
#8 = APPROVAL ( #90, 'UNSPECIFIED' ) ;
#9 = COORDINATED_UNIVERSAL_TIME_OFFSET ( 1, 0, .AHEAD. ) ;
#10 = CC_DESIGN_PERSON_AND_ORGANIZATION_ASSIGNMENT ( #128, #211, ( #204 ) ) ;
#11 = PERSON_AND_ORGANIZATION ( #76, #83 ) ;
#12 = AXIS2_PLACEMENT_3D ( 'NONE', #53, #1, #102 ) ;
#13 =( NAMED_UNIT ( * ) SI_UNIT ( $, .STERADIAN. ) SOLID_ANGLE_UNIT ( ) );
#14 = CC_DESIGN_PERSON_AND_ORGANIZATION_ASSIGNMENT ( #213, #45, ( #23 ) ) ;
#15 = EDGE_LOOP ( 'NONE', ( #50 ) ) ;
#16 = CALENDAR_DATE ( 2021, 7, 10 ) ;
#17 = PLANE ( 'NONE',  #168 ) ;
#18 = APPROVAL_PERSON_ORGANIZATION ( #11, #172, #109 ) ;
#19 = DIRECTION ( 'NONE',  ( -3.491481338843133355E-15, 1.224646799147353207E-16, -1.000000000000000000 ) ) ;
#20 = CARTESIAN_POINT ( 'NONE',  ( 1.319779946082704535E-13, -4.629164900776995227E-15, 37.79999999999999716 ) ) ;
#21 = DIRECTION ( 'NONE',  ( 0.0000000000000000000, 1.000000000000000000, 0.0000000000000000000 ) ) ;
#22 = DIRECTION ( 'NONE',  ( 0.0000000000000000000, 1.000000000000000000, 0.0000000000000000000 ) ) ;
#23 = SECURITY_CLASSIFICATION ( '', '', #140 ) ;
#24 = AXIS2_PLACEMENT_3D ( 'NONE', #4, #37, #171 ) ;
#25 = DATE_AND_TIME ( #61, #151 ) ;
#26 = PRODUCT_RELATED_PRODUCT_CATEGORY ( 'detail', '', ( #66 ) ) ;
#27 = CARTESIAN_POINT ( 'NONE',  ( 1.326762908760390423E-13, 0.7999999999999949374, 38.00000000000000000 ) ) ;
#28 = EDGE_LOOP ( 'NONE', ( #198 ) ) ;
#29 = CC_DESIGN_APPROVAL ( #172, ( #187 ) ) ;
#30 = APPROVAL_ROLE ( '' ) ;
#31 = PERSON_AND_ORGANIZATION_ROLE ( 'creator' ) ;
#32 = EDGE_LOOP ( 'NONE', ( #46 ) ) ;
#33 = ADVANCED_BREP_SHAPE_REPRESENTATION ( '50158', ( #149, #6, #60 ), #122 ) ;
#34 = EDGE_LOOP ( 'NONE', ( #167 ) ) ;
#35 = DIRECTION ( 'NONE',  ( 4.275831445896958607E-31, 1.000000000000000000, 1.224646799147352961E-16 ) ) ;
#36 = DESIGN_CONTEXT ( 'detailed design', #220, 'design' ) ;
#37 = DIRECTION ( 'NONE',  ( 3.491481338843133355E-15, -1.224646799147353207E-16, 1.000000000000000000 ) ) ;
#38 = FACE_BOUND ( 'NONE', #34, .T. ) ;
#39 = CARTESIAN_POINT ( 'NONE',  ( 1.319779946082704535E-13, 0.9999999999999947820, 37.79999999999999716 ) ) ;
#40 = CC_DESIGN_APPROVAL ( #8, ( #204 ) ) ;
#41 = VERTEX_POINT ( 'NONE', #105 ) ;
#42 = ADVANCED_FACE ( 'NONE', ( #64 ), #127, .F. ) ;
#43 = PERSON_AND_ORGANIZATION ( #76, #83 ) ;
#44 = APPLICATION_PROTOCOL_DEFINITION ( 'international standard', 'config_control_design', 1994, #132 ) ;
#45 = PERSON_AND_ORGANIZATION_ROLE ( 'classification_officer' ) ;
#46 = ORIENTED_EDGE ( 'NONE', *, *, #139, .T. ) ;
#47 = APPROVAL_STATUS ( 'not_yet_approved' ) ;
#48 = DIRECTION ( 'NONE',  ( 3.491481338843133355E-15, -1.224646799147353207E-16, 1.000000000000000000 ) ) ;
#49 = COORDINATED_UNIVERSAL_TIME_OFFSET ( 1, 0, .AHEAD. ) ;
#50 = ORIENTED_EDGE ( 'NONE', *, *, #196, .T. ) ;
#51 = ORIENTED_EDGE ( 'NONE', *, *, #196, .F. ) ;
#52 = CIRCLE ( 'NONE', #12, 0.9999999999999970024 ) ;
#53 = CARTESIAN_POINT ( 'NONE',  ( 4.210943587365703819E-14, -1.477000185647898862E-15, 12.06062177826491499 ) ) ;
#54 = CARTESIAN_POINT ( 'NONE',  ( 1.326762908760390423E-13, -4.653657836759941941E-15, 38.00000000000000000 ) ) ;
#55 = LOCAL_TIME ( 15, 48, 19.00000000000000000, #49 ) ;
#56 = CYLINDRICAL_SURFACE ( 'NONE', #147, 0.9649999999999943068 ) ;
#57 = VERTEX_POINT ( 'NONE', #120 ) ;
#58 = CIRCLE ( 'NONE', #80, 0.7999999999999996003 ) ;
#59 = VERTEX_POINT ( 'NONE', #121 ) ;
#60 = AXIS2_PLACEMENT_3D ( 'NONE', #112, #192, #159 ) ;
#61 = CALENDAR_DATE ( 2021, 7, 10 ) ;
#62 = CC_DESIGN_APPROVAL ( #92, ( #23 ) ) ;
#63 = APPROVAL_STATUS ( 'not_yet_approved' ) ;
#64 = FACE_OUTER_BOUND ( 'NONE', #184, .T. ) ;
#65 = COORDINATED_UNIVERSAL_TIME_OFFSET ( 1, 0, .AHEAD. ) ;
#66 = PRODUCT ( '50158', '50158', '', ( #107 ) ) ;
#67 = ORIENTED_EDGE ( 'NONE', *, *, #139, .F. ) ;
#68 = FACE_OUTER_BOUND ( 'NONE', #161, .T. ) ;
#69 = CARTESIAN_POINT ( 'NONE',  ( 0.0000000000000000000, 0.0000000000000000000, 0.0000000000000000000 ) ) ;
#70 = DIRECTION ( 'NONE',  ( -3.491481338843133355E-15, 1.224646799147353207E-16, -1.000000000000000000 ) ) ;
#71 = DIRECTION ( 'NONE',  ( -3.491481338843133355E-15, 1.224646799147353207E-16, -1.000000000000000000 ) ) ;
#72 = DIRECTION ( 'NONE',  ( -3.491481338843133355E-15, 1.224646799147353207E-16, -1.000000000000000000 ) ) ;
#73 = PERSON_AND_ORGANIZATION_ROLE ( 'design_owner' ) ;
#74 = PERSON_AND_ORGANIZATION ( #76, #83 ) ;
#75 = ADVANCED_FACE ( 'NONE', ( #164, #115 ), #106, .T. ) ;
#76 = PERSON ( 'UNSPECIFIED', 'UNSPECIFIED', 'UNSPECIFIED', ('UNSPECIFIED'), ('UNSPECIFIED'), ('UNSPECIFIED') ) ;
#77 =( LENGTH_UNIT ( ) NAMED_UNIT ( * ) SI_UNIT ( .MILLI., .METRE. ) );
#78 = CARTESIAN_POINT ( 'NONE',  ( 4.189777606611760026E-14, 7.236340951343403567E-33, 12.00000000000000000 ) ) ;
#79 = CLOSED_SHELL ( 'NONE', ( #42, #75, #210, #155, #199 ) ) ;
#80 = AXIS2_PLACEMENT_3D ( 'NONE', #3, #70, #207 ) ;
#81 = EDGE_LOOP ( 'NONE', ( #67 ) ) ;
#82 = DIRECTION ( 'NONE',  ( 0.0000000000000000000, 1.000000000000000000, 0.0000000000000000000 ) ) ;
#83 = ORGANIZATION ( 'UNSPECIFIED', 'UNSPECIFIED', '' ) ;
#84 = FACE_OUTER_BOUND ( 'NONE', #178, .T. ) ;
#85 = DIRECTION ( 'NONE',  ( -3.491481338843133355E-15, 1.224646799147353207E-16, -1.000000000000000000 ) ) ;
#86 = PLANE ( 'NONE',  #160 ) ;
#87 = ADVANCED_FACE ( 'NONE', ( #84 ), #17, .T. ) ;
#88 = CONICAL_SURFACE ( 'NONE', #156, 0.7999999999999996003, 0.7853981633974507215 ) ;
#89 = DIRECTION ( 'NONE',  ( 3.491481338843133355E-15, -1.224646799147353207E-16, 1.000000000000000000 ) ) ;
#90 = APPROVAL_STATUS ( 'not_yet_approved' ) ;
#91 = ORIENTED_EDGE ( 'NONE', *, *, #131, .T. ) ;
#92 = APPROVAL ( #47, 'UNSPECIFIED' ) ;
#93 = DIRECTION ( 'NONE',  ( -4.275831445896958607E-31, -1.000000000000000000, -1.224646799147353207E-16 ) ) ;
#94 = EDGE_CURVE ( 'NONE', #57, #57, #214, .T. ) ;
#95 = EDGE_LOOP ( 'NONE', ( #113 ) ) ;
#96 = ORIENTED_EDGE ( 'NONE', *, *, #219, .F. ) ;
#97 = AXIS2_PLACEMENT_3D ( 'NONE', #173, #201, #203 ) ;
#98 = DATE_AND_TIME ( #16, #55 ) ;
#99 = CC_DESIGN_PERSON_AND_ORGANIZATION_ASSIGNMENT ( #176, #146, ( #187 ) ) ;
#100 = ORIENTED_EDGE ( 'NONE', *, *, #94, .F. ) ;
#101 = DIRECTION ( 'NONE',  ( 3.991564651579789868E-31, 1.000000000000000000, 1.123525567342499084E-16 ) ) ;
#102 = DIRECTION ( 'NONE',  ( 0.0000000000000000000, 1.000000000000000000, 0.0000000000000000000 ) ) ;
#103 = DIRECTION ( 'NONE',  ( -3.491481338843133355E-15, 1.224646799147353207E-16, -1.000000000000000000 ) ) ;
#104 = VERTEX_POINT ( 'NONE', #154 ) ;
#105 = CARTESIAN_POINT ( 'NONE',  ( 4.210943587365703819E-14, 0.9999999999999954481, 12.06062177826491499 ) ) ;
#106 = CONICAL_SURFACE ( 'NONE', #97, 0.9999999999999970024, 0.5235987755982935976 ) ;
#107 = MECHANICAL_CONTEXT ( 'NONE', #132, 'mechanical' ) ;
#108 = AXIS2_PLACEMENT_3D ( 'NONE', #20, #71, #205 ) ;
#109 = APPROVAL_ROLE ( '' ) ;
#110 = APPROVAL_PERSON_ORGANIZATION ( #43, #8, #158 ) ;
#111 = EDGE_LOOP ( 'NONE', ( #51 ) ) ;
#112 = CARTESIAN_POINT ( 'NONE',  ( 0.0000000000000000000, 0.0000000000000000000, 0.0000000000000000000 ) ) ;
#113 = ORIENTED_EDGE ( 'NONE', *, *, #131, .F. ) ;
#114 =( NAMED_UNIT ( * ) PLANE_ANGLE_UNIT ( ) SI_UNIT ( $, .RADIAN. ) );
#115 = FACE_OUTER_BOUND ( 'NONE', #15, .T. ) ;
#116 = AXIS2_PLACEMENT_3D ( 'NONE', #152, #7, #101 ) ;
#117 = EDGE_CURVE ( 'NONE', #189, #189, #206, .T. ) ;
#118 = FACE_OUTER_BOUND ( 'NONE', #216, .T. ) ;
#119 = PRODUCT_DEFINITION_SHAPE ( 'NONE', 'NONE',  #187 ) ;
#120 = CARTESIAN_POINT ( 'NONE',  ( 4.189777606611760026E-14, 0.9649999999999936406, 12.00000000000000000 ) ) ;
#121 = CARTESIAN_POINT ( 'NONE',  ( 2.024467361230152872E-15, 0.9649999999999934186, 0.5798304973615980851 ) ) ;
#122 =( GEOMETRIC_REPRESENTATION_CONTEXT ( 3 ) GLOBAL_UNCERTAINTY_ASSIGNED_CONTEXT ( ( #202 ) ) GLOBAL_UNIT_ASSIGNED_CONTEXT ( ( #77, #114, #13 ) ) REPRESENTATION_CONTEXT ( 'NONE', 'WORKASPACE' ) );
#123 = DATE_AND_TIME ( #137, #165 ) ;
#124 = AXIS2_PLACEMENT_3D ( 'NONE', #222, #133, #82 ) ;
#125 = CC_DESIGN_PERSON_AND_ORGANIZATION_ASSIGNMENT ( #74, #31, ( #204 ) ) ;
#126 = DATE_TIME_ROLE ( 'classification_date' ) ;
#127 = PLANE ( 'NONE',  #134 ) ;
#128 = PERSON_AND_ORGANIZATION ( #76, #83 ) ;
#129 = CARTESIAN_POINT ( 'NONE',  ( 4.189777606611760026E-14, -1.469576158976823947E-15, 12.00000000000000000 ) ) ;
#130 = FACE_OUTER_BOUND ( 'NONE', #32, .T. ) ;
#131 = EDGE_CURVE ( 'NONE', #104, #104, #194, .T. ) ;
#132 = APPLICATION_CONTEXT ( 'configuration controlled 3d designs of mechanical parts and assemblies' ) ;
#133 = DIRECTION ( 'NONE',  ( -3.491481338843133355E-15, 1.224646799147353207E-16, -1.000000000000000000 ) ) ;
#134 = AXIS2_PLACEMENT_3D ( 'NONE', #78, #48, #93 ) ;
#135 = CC_DESIGN_DATE_AND_TIME_ASSIGNMENT ( #143, #126, ( #23 ) ) ;
#136 = CARTESIAN_POINT ( 'NONE',  ( 4.189777606611760026E-14, 7.236340951343403567E-33, 12.00000000000000000 ) ) ;
#137 = CALENDAR_DATE ( 2021, 7, 10 ) ;
#138 = PERSON_AND_ORGANIZATION ( #76, #83 ) ;
#139 = EDGE_CURVE ( 'NONE', #59, #59, #5, .T. ) ;
#140 = SECURITY_CLASSIFICATION_LEVEL ( 'unclassified' ) ;
#141 = CLOSED_SHELL ( 'NONE', ( #163, #200, #87 ) ) ;
#142 = CC_DESIGN_PERSON_AND_ORGANIZATION_ASSIGNMENT ( #138, #73, ( #66 ) ) ;
#143 = DATE_AND_TIME ( #215, #145 ) ;
#144 = ORIENTED_EDGE ( 'NONE', *, *, #117, .F. ) ;
#145 = LOCAL_TIME ( 15, 48, 19.00000000000000000, #177 ) ;
#146 = PERSON_AND_ORGANIZATION_ROLE ( 'creator' ) ;
#147 = AXIS2_PLACEMENT_3D ( 'NONE', #174, #19, #35 ) ;
#148 = CC_DESIGN_SECURITY_CLASSIFICATION ( #23, ( #204 ) ) ;
#149 = MANIFOLD_SOLID_BREP ( 'Corps-Déplacer/Copier1[1]', #79 ) ;
#150 = CYLINDRICAL_SURFACE ( 'NONE', #175, 0.9999999999999983347 ) ;
#151 = LOCAL_TIME ( 15, 48, 19.00000000000000000, #181 ) ;
#152 = CARTESIAN_POINT ( 'NONE',  ( 2.024467361230152477E-15, -7.100875626418987835E-17, 0.5798304973615979740 ) ) ;
#153 = DIRECTION ( 'NONE',  ( 4.275831445896958607E-31, 1.000000000000000000, 1.224646799147353207E-16 ) ) ;
#154 = CARTESIAN_POINT ( 'NONE',  ( 4.189777606611760026E-14, 0.9649999999999936406, 12.00000000000000000 ) ) ;
#155 = ADVANCED_FACE ( 'NONE', ( #68, #38 ), #88, .T. ) ;
#156 = AXIS2_PLACEMENT_3D ( 'NONE', #54, #72, #22 ) ;
#157 = DIRECTION ( 'NONE',  ( -4.275831445896958607E-31, -1.000000000000000000, -1.224646799147353207E-16 ) ) ;
#158 = APPROVAL_ROLE ( '' ) ;
#159 = DIRECTION ( 'NONE',  ( 1.000000000000000000, 0.0000000000000000000, 0.0000000000000000000 ) ) ;
#160 = AXIS2_PLACEMENT_3D ( 'NONE', #170, #85, #185 ) ;
#161 = EDGE_LOOP ( 'NONE', ( #144 ) ) ;
#162 = VERTEX_POINT ( 'NONE', #27 ) ;
#163 = ADVANCED_FACE ( 'NONE', ( #130 ), #208, .T. ) ;
#164 = FACE_BOUND ( 'NONE', #95, .T. ) ;
#165 = LOCAL_TIME ( 15, 48, 19.00000000000000000, #9 ) ;
#166 = DATE_TIME_ROLE ( 'creation_date' ) ;
#167 = ORIENTED_EDGE ( 'NONE', *, *, #219, .T. ) ;
#168 = AXIS2_PLACEMENT_3D ( 'NONE', #136, #89, #157 ) ;
#169 = FACE_OUTER_BOUND ( 'NONE', #111, .T. ) ;
#170 = CARTESIAN_POINT ( 'NONE',  ( 1.326762908760390423E-13, 5.999039130647358587E-33, 38.00000000000000000 ) ) ;
#171 = DIRECTION ( 'NONE',  ( -3.991564651579789868E-31, -1.000000000000000000, -1.123525567342499084E-16 ) ) ;
#172 = APPROVAL ( #63, 'UNSPECIFIED' ) ;
#173 = CARTESIAN_POINT ( 'NONE',  ( 4.210943587365703819E-14, -1.477000185647898862E-15, 12.06062177826491499 ) ) ;
#174 = CARTESIAN_POINT ( 'NONE',  ( 0.0000000000000000000, 0.0000000000000000000, 0.0000000000000000000 ) ) ;
#175 = AXIS2_PLACEMENT_3D ( 'NONE', #69, #103, #153 ) ;
#176 = PERSON_AND_ORGANIZATION ( #76, #83 ) ;
#177 = COORDINATED_UNIVERSAL_TIME_OFFSET ( 1, 0, .AHEAD. ) ;
#178 = EDGE_LOOP ( 'NONE', ( #100 ) ) ;
#179 = CALENDAR_DATE ( 2021, 7, 10 ) ;
#180 = ORIENTED_EDGE ( 'NONE', *, *, #94, .T. ) ;
#181 = COORDINATED_UNIVERSAL_TIME_OFFSET ( 1, 0, .AHEAD. ) ;
#182 = APPROVAL_DATE_TIME ( #98, #92 ) ;
#183 = CC_DESIGN_DATE_AND_TIME_ASSIGNMENT ( #25, #166, ( #187 ) ) ;
#184 = EDGE_LOOP ( 'NONE', ( #91 ) ) ;
#185 = DIRECTION ( 'NONE',  ( 4.275831445896958607E-31, 1.000000000000000000, 1.224646799147353207E-16 ) ) ;
#186 = FACE_OUTER_BOUND ( 'NONE', #81, .T. ) ;
#187 = PRODUCT_DEFINITION ( 'UNKNOWN', '', #204, #36 ) ;
#188 = FACE_OUTER_BOUND ( 'NONE', #218, .T. ) ;
#189 = VERTEX_POINT ( 'NONE', #39 ) ;
#190 = DIRECTION ( 'NONE',  ( -3.491481338843133355E-15, 1.224646799147353207E-16, -1.000000000000000000 ) ) ;
#191 = DATE_AND_TIME ( #179, #221 ) ;
#192 = DIRECTION ( 'NONE',  ( 0.0000000000000000000, 0.0000000000000000000, 1.000000000000000000 ) ) ;
#193 = AXIS2_PLACEMENT_3D ( 'NONE', #129, #190, #21 ) ;
#194 = CIRCLE ( 'NONE', #193, 0.9649999999999951950 ) ;
#195 = APPROVAL_DATE_TIME ( #123, #8 ) ;
#196 = EDGE_CURVE ( 'NONE', #41, #41, #52, .T. ) ;
#197 = PERSON_AND_ORGANIZATION ( #76, #83 ) ;
#198 = ORIENTED_EDGE ( 'NONE', *, *, #117, .T. ) ;
#199 = ADVANCED_FACE ( 'NONE', ( #118 ), #86, .F. ) ;
#200 = ADVANCED_FACE ( 'NONE', ( #186, #188 ), #56, .T. ) ;
#201 = DIRECTION ( 'NONE',  ( 3.491481338843133355E-15, -1.224646799147353207E-16, 1.000000000000000000 ) ) ;
#202 = UNCERTAINTY_MEASURE_WITH_UNIT (LENGTH_MEASURE( 1.000000000000000082E-05 ), #77, 'distance_accuracy_value', 'NONE');
#203 = DIRECTION ( 'NONE',  ( 0.0000000000000000000, -1.000000000000000000, 0.0000000000000000000 ) ) ;
#204 = PRODUCT_DEFINITION_FORMATION_WITH_SPECIFIED_SOURCE ( 'ANY', '', #66, .NOT_KNOWN. ) ;
#205 = DIRECTION ( 'NONE',  ( 0.0000000000000000000, 1.000000000000000000, 0.0000000000000000000 ) ) ;
#206 = CIRCLE ( 'NONE', #108, 0.9999999999999993339 ) ;
#207 = DIRECTION ( 'NONE',  ( 0.0000000000000000000, 1.000000000000000000, 0.0000000000000000000 ) ) ;
#208 = CONICAL_SURFACE ( 'NONE', #24, 0.9649999999999935296, 1.029744258676649871 ) ;
#209 = FACE_OUTER_BOUND ( 'NONE', #28, .T. ) ;
#210 = ADVANCED_FACE ( 'NONE', ( #169, #209 ), #150, .T. ) ;
#211 = PERSON_AND_ORGANIZATION_ROLE ( 'design_supplier' ) ;
#212 = APPLICATION_PROTOCOL_DEFINITION ( 'international standard', 'config_control_design', 1994, #220 ) ;
#213 = PERSON_AND_ORGANIZATION ( #76, #83 ) ;
#214 = CIRCLE ( 'NONE', #124, 0.9649999999999951950 ) ;
#215 = CALENDAR_DATE ( 2021, 7, 10 ) ;
#216 = EDGE_LOOP ( 'NONE', ( #96 ) ) ;
#217 = APPROVAL_DATE_TIME ( #191, #172 ) ;
#218 = EDGE_LOOP ( 'NONE', ( #180 ) ) ;
#219 = EDGE_CURVE ( 'NONE', #162, #162, #58, .T. ) ;
#220 = APPLICATION_CONTEXT ( 'configuration controlled 3d designs of mechanical parts and assemblies' ) ;
#221 = LOCAL_TIME ( 15, 48, 19.00000000000000000, #65 ) ;
#222 = CARTESIAN_POINT ( 'NONE',  ( 4.189777606611760026E-14, -1.469576158976823947E-15, 12.00000000000000000 ) ) ;
#223 = SHAPE_DEFINITION_REPRESENTATION ( #119, #33 ) ;
ENDSEC;
END-ISO-10303-21;
