ISO-10303-21;
HEADER;
FILE_DESCRIPTION (( 'STEP AP203' ),
    '1' );
FILE_NAME ('50068.step',
    '2021-10-08T05:53:56',
    ( '' ),
    ( '' ),
    'SwSTEP 2.0',
    'SolidWorks 2019',
    '' );
FILE_SCHEMA (( 'CONFIG_CONTROL_DESIGN' ));
ENDSEC;

DATA;
#1 = CALENDAR_DATE ( 2021, 8, 10 ) ;
#2 = ADVANCED_FACE ( 'NONE', ( #38, #60 ), #59, .T. ) ;
#3 = DIRECTION ( 'NONE',  ( 4.275831445896959482E-31, 1.000000000000000000, 1.224646799147353207E-16 ) ) ;
#4 = EDGE_LOOP ( 'NONE', ( #174 ) ) ;
#5 = EDGE_CURVE ( 'NONE', #64, #64, #115, .T. ) ;
#6 = EDGE_LOOP ( 'NONE', ( #17 ) ) ;
#7 = APPLICATION_PROTOCOL_DEFINITION ( 'international standard', 'config_control_design', 1994, #103 ) ;
#8 = FACE_OUTER_BOUND ( 'NONE', #110, .T. ) ;
#9 = MANIFOLD_SOLID_BREP ( 'Corps-Déplacer/Copier1[1]', #209 ) ;
#10 = DIRECTION ( 'NONE',  ( 4.275831445896958607E-31, 1.000000000000000000, 1.224646799147353207E-16 ) ) ;
#11 = AXIS2_PLACEMENT_3D ( 'NONE', #20, #198, #73 ) ;
#12 = AXIS2_PLACEMENT_3D ( 'NONE', #92, #56, #128 ) ;
#13 = CALENDAR_DATE ( 2021, 8, 10 ) ;
#14 = COORDINATED_UNIVERSAL_TIME_OFFSET ( 1, 0, .AHEAD. ) ;
#15 = SECURITY_CLASSIFICATION_LEVEL ( 'unclassified' ) ;
#16 = ORIENTED_EDGE ( 'NONE', *, *, #5, .T. ) ;
#17 = ORIENTED_EDGE ( 'NONE', *, *, #96, .F. ) ;
#18 = ADVANCED_FACE ( 'NONE', ( #144 ), #23, .T. ) ;
#19 = FACE_OUTER_BOUND ( 'NONE', #162, .T. ) ;
#20 = CARTESIAN_POINT ( 'NONE',  ( 3.910459099504309358E-14, 4.949207282784107389E-33, 11.19999999999999929 ) ) ;
#21 = CARTESIAN_POINT ( 'NONE',  ( 3.964885907157303174E-14, -1.390694769342083745E-15, 11.35588457268119811 ) ) ;
#22 = DIRECTION ( 'NONE',  ( 0.0000000000000000000, 1.000000000000000000, 0.0000000000000000000 ) ) ;
#23 = PLANE ( 'NONE',  #11 ) ;
#24 = AXIS2_PLACEMENT_3D ( 'NONE', #21, #132, #146 ) ;
#25 = LOCAL_TIME ( 7, 53, 56.00000000000000000, #66 ) ;
#26 = CYLINDRICAL_SURFACE ( 'NONE', #217, 0.6599999999999993650 ) ;
#27 = FACE_BOUND ( 'NONE', #4, .T. ) ;
#28 = CARTESIAN_POINT ( 'NONE',  ( 1.330433075962094409E-15, 0.6599999999999989209, 0.3810511776651568927 ) ) ;
#29 = CARTESIAN_POINT ( 'NONE',  ( 1.047444401652940007E-13, -3.673940397442059178E-15, 30.00000000000000000 ) ) ;
#30 = APPROVAL_ROLE ( '' ) ;
#31 = AXIS2_PLACEMENT_3D ( 'NONE', #199, #208, #158 ) ;
#32 = EDGE_LOOP ( 'NONE', ( #16 ) ) ;
#33 = APPROVAL_DATE_TIME ( #190, #189 ) ;
#34 = PRODUCT ( '50068', '50068', '', ( #134 ) ) ;
#35 = AXIS2_PLACEMENT_3D ( 'NONE', #47, #120, #10 ) ;
#36 = CC_DESIGN_PERSON_AND_ORGANIZATION_ASSIGNMENT ( #65, #207, ( #54 ) ) ;
#37 = DIRECTION ( 'NONE',  ( -3.491481338843133355E-15, 1.224646799147353207E-16, -1.000000000000000000 ) ) ;
#38 = FACE_OUTER_BOUND ( 'NONE', #214, .T. ) ;
#39 = FACE_OUTER_BOUND ( 'NONE', #6, .T. ) ;
#40 = FACE_OUTER_BOUND ( 'NONE', #32, .T. ) ;
#41 = APPLICATION_CONTEXT ( 'configuration controlled 3d designs of mechanical parts and assemblies' ) ;
#42 = DIRECTION ( 'NONE',  ( -3.491481338843133355E-15, 1.224646799147353207E-16, -1.000000000000000000 ) ) ;
#43 = APPROVAL_STATUS ( 'not_yet_approved' ) ;
#44 = AXIS2_PLACEMENT_3D ( 'NONE', #130, #37, #197 ) ;
#45 = APPROVAL_PERSON_ORGANIZATION ( #88, #189, #30 ) ;
#46 = VERTEX_POINT ( 'NONE', #28 ) ;
#47 = CARTESIAN_POINT ( 'NONE',  ( 1.047444401652940007E-13, 4.124339402320052999E-33, 30.00000000000000000 ) ) ;
#48 = CIRCLE ( 'NONE', #31, 0.7499999999999998890 ) ;
#49 = VERTEX_POINT ( 'NONE', #119 ) ;
#50 = PERSON_AND_ORGANIZATION_ROLE ( 'classification_officer' ) ;
#51 = APPROVAL_DATE_TIME ( #104, #117 ) ;
#52 = ADVANCED_FACE ( 'NONE', ( #180, #40 ), #157, .T. ) ;
#53 = CC_DESIGN_PERSON_AND_ORGANIZATION_ASSIGNMENT ( #140, #50, ( #160 ) ) ;
#54 = PRODUCT_DEFINITION_FORMATION_WITH_SPECIFIED_SOURCE ( 'ANY', '', #34, .NOT_KNOWN. ) ;
#55 = CIRCLE ( 'NONE', #44, 0.6599999999999996980 ) ;
#56 = DIRECTION ( 'NONE',  ( 3.491481338843133355E-15, -1.224646799147353207E-16, 1.000000000000000000 ) ) ;
#57 = FACE_OUTER_BOUND ( 'NONE', #89, .T. ) ;
#58 = CARTESIAN_POINT ( 'NONE',  ( 3.910459099504309358E-14, -1.371604415045035513E-15, 11.19999999999999929 ) ) ;
#59 = CYLINDRICAL_SURFACE ( 'NONE', #131, 0.7499999999999987788 ) ;
#60 = FACE_OUTER_BOUND ( 'NONE', #213, .T. ) ;
#61 = DIRECTION ( 'NONE',  ( 1.000000000000000000, 0.0000000000000000000, 0.0000000000000000000 ) ) ;
#62 = CARTESIAN_POINT ( 'NONE',  ( 1.330433075962094409E-15, -4.666531050389636845E-17, 0.3810511776651568372 ) ) ;
#63 = CARTESIAN_POINT ( 'NONE',  ( 3.964885907157303174E-14, 0.7499999999999963363, 11.35588457268119811 ) ) ;
#64 = VERTEX_POINT ( 'NONE', #63 ) ;
#65 = PERSON_AND_ORGANIZATION ( #116, #178 ) ;
#66 = COORDINATED_UNIVERSAL_TIME_OFFSET ( 1, 0, .AHEAD. ) ;
#67 = ORIENTED_EDGE ( 'NONE', *, *, #109, .F. ) ;
#68 = CONICAL_SURFACE ( 'NONE', #123, 0.5500000000000000444, 0.7853981633974510546 ) ;
#69 = ORIENTED_EDGE ( 'NONE', *, *, #161, .F. ) ;
#70 = EDGE_CURVE ( 'NONE', #184, #184, #48, .T. ) ;
#71 = EDGE_LOOP ( 'NONE', ( #111 ) ) ;
#72 = EDGE_LOOP ( 'NONE', ( #67 ) ) ;
#73 = DIRECTION ( 'NONE',  ( -4.275831445896958607E-31, -1.000000000000000000, -1.224646799147353207E-16 ) ) ;
#74 =( GEOMETRIC_REPRESENTATION_CONTEXT ( 3 ) GLOBAL_UNCERTAINTY_ASSIGNED_CONTEXT ( ( #195 ) ) GLOBAL_UNIT_ASSIGNED_CONTEXT ( ( #80, #114, #153 ) ) REPRESENTATION_CONTEXT ( 'NONE', 'WORKASPACE' ) );
#75 = ADVANCED_FACE ( 'NONE', ( #57 ), #129, .F. ) ;
#76 = DIRECTION ( 'NONE',  ( 4.275831445896958607E-31, 1.000000000000000000, 1.224646799147353207E-16 ) ) ;
#77 = DIRECTION ( 'NONE',  ( -3.491481338843133355E-15, 1.224646799147353207E-16, -1.000000000000000000 ) ) ;
#78 = DIRECTION ( 'NONE',  ( 0.0000000000000000000, 1.000000000000000000, 0.0000000000000000000 ) ) ;
#79 = APPROVAL_PERSON_ORGANIZATION ( #186, #81, #99 ) ;
#80 =( LENGTH_UNIT ( ) NAMED_UNIT ( * ) SI_UNIT ( .MILLI., .METRE. ) );
#81 = APPROVAL ( #43, 'UNSPECIFIED' ) ;
#82 = SHAPE_DEFINITION_REPRESENTATION ( #149, #166 ) ;
#83 = MANIFOLD_SOLID_BREP ( 'Corps-Déplacer/Copier1[2]', #138 ) ;
#84 = COORDINATED_UNIVERSAL_TIME_OFFSET ( 1, 0, .AHEAD. ) ;
#85 = DATE_AND_TIME ( #170, #87 ) ;
#86 = AXIS2_PLACEMENT_3D ( 'NONE', #148, #108, #113 ) ;
#87 = LOCAL_TIME ( 7, 53, 56.00000000000000000, #84 ) ;
#88 = PERSON_AND_ORGANIZATION ( #116, #178 ) ;
#89 = EDGE_LOOP ( 'NONE', ( #163 ) ) ;
#90 = ORIENTED_EDGE ( 'NONE', *, *, #70, .F. ) ;
#91 = CIRCLE ( 'NONE', #192, 0.5500000000000000444 ) ;
#92 = CARTESIAN_POINT ( 'NONE',  ( 3.910459099504309358E-14, 4.949207282784107389E-33, 11.19999999999999929 ) ) ;
#93 = EDGE_LOOP ( 'NONE', ( #90 ) ) ;
#94 = FACE_OUTER_BOUND ( 'NONE', #93, .T. ) ;
#95 = CARTESIAN_POINT ( 'NONE',  ( 3.910459099504309358E-14, 0.6599999999999982547, 11.19999999999999929 ) ) ;
#96 = EDGE_CURVE ( 'NONE', #49, #49, #91, .T. ) ;
#97 = PLANE ( 'NONE',  #35 ) ;
#98 = PRODUCT_DEFINITION ( 'UNKNOWN', '', #54, #124 ) ;
#99 = APPROVAL_ROLE ( '' ) ;
#100 = AXIS2_PLACEMENT_3D ( 'NONE', #62, #77, #167 ) ;
#101 = DATE_AND_TIME ( #222, #152 ) ;
#102 = ORIENTED_EDGE ( 'NONE', *, *, #70, .T. ) ;
#103 = APPLICATION_CONTEXT ( 'configuration controlled 3d designs of mechanical parts and assemblies' ) ;
#104 = DATE_AND_TIME ( #13, #25 ) ;
#105 = EDGE_CURVE ( 'NONE', #220, #220, #191, .T. ) ;
#106 = CARTESIAN_POINT ( 'NONE',  ( 0.0000000000000000000, 0.0000000000000000000, 0.0000000000000000000 ) ) ;
#107 = CC_DESIGN_PERSON_AND_ORGANIZATION_ASSIGNMENT ( #139, #188, ( #98 ) ) ;
#108 = DIRECTION ( 'NONE',  ( 3.491481338843133355E-15, -1.224646799147353207E-16, 1.000000000000000000 ) ) ;
#109 = EDGE_CURVE ( 'NONE', #183, #183, #55, .T. ) ;
#110 = EDGE_LOOP ( 'NONE', ( #142 ) ) ;
#111 = ORIENTED_EDGE ( 'NONE', *, *, #105, .F. ) ;
#112 = CC_DESIGN_DATE_AND_TIME_ASSIGNMENT ( #101, #223, ( #98 ) ) ;
#113 = DIRECTION ( 'NONE',  ( -2.918075673313998706E-31, -1.000000000000000000, -8.213652821859896120E-17 ) ) ;
#114 =( NAMED_UNIT ( * ) PLANE_ANGLE_UNIT ( ) SI_UNIT ( $, .RADIAN. ) );
#115 = CIRCLE ( 'NONE', #24, 0.7499999999999977796 ) ;
#116 = PERSON ( 'UNSPECIFIED', 'UNSPECIFIED', 'UNSPECIFIED', ('UNSPECIFIED'), ('UNSPECIFIED'), ('UNSPECIFIED') ) ;
#117 = APPROVAL ( #204, 'UNSPECIFIED' ) ;
#118 = PERSON_AND_ORGANIZATION ( #116, #178 ) ;
#119 = CARTESIAN_POINT ( 'NONE',  ( 1.047444401652940007E-13, 0.5499999999999963807, 30.00000000000000000 ) ) ;
#120 = DIRECTION ( 'NONE',  ( -3.491481338843133355E-15, 1.224646799147353207E-16, -1.000000000000000000 ) ) ;
#121 = DATE_TIME_ROLE ( 'classification_date' ) ;
#122 = COORDINATED_UNIVERSAL_TIME_OFFSET ( 1, 0, .AHEAD. ) ;
#123 = AXIS2_PLACEMENT_3D ( 'NONE', #29, #165, #78 ) ;
#124 = DESIGN_CONTEXT ( 'detailed design', #41, 'design' ) ;
#125 = PERSON_AND_ORGANIZATION ( #116, #178 ) ;
#126 = APPROVAL_STATUS ( 'not_yet_approved' ) ;
#127 = CC_DESIGN_APPROVAL ( #81, ( #98 ) ) ;
#128 = DIRECTION ( 'NONE',  ( -4.275831445896958607E-31, -1.000000000000000000, -1.224646799147353207E-16 ) ) ;
#129 = PLANE ( 'NONE',  #12 ) ;
#130 = CARTESIAN_POINT ( 'NONE',  ( 3.910459099504309358E-14, -1.371604415045035513E-15, 11.19999999999999929 ) ) ;
#131 = AXIS2_PLACEMENT_3D ( 'NONE', #106, #179, #3 ) ;
#132 = DIRECTION ( 'NONE',  ( -3.491481338843133355E-15, 1.224646799147353207E-16, -1.000000000000000000 ) ) ;
#133 = DIRECTION ( 'NONE',  ( 0.0000000000000000000, 0.0000000000000000000, 1.000000000000000000 ) ) ;
#134 = MECHANICAL_CONTEXT ( 'NONE', #103, 'mechanical' ) ;
#135 = APPROVAL_PERSON_ORGANIZATION ( #156, #117, #173 ) ;
#136 = FACE_OUTER_BOUND ( 'NONE', #159, .T. ) ;
#137 = CARTESIAN_POINT ( 'NONE',  ( 1.040461438975253740E-13, 0.7499999999999962252, 29.80000000000000071 ) ) ;
#138 = CLOSED_SHELL ( 'NONE', ( #141, #202, #18 ) ) ;
#139 = PERSON_AND_ORGANIZATION ( #116, #178 ) ;
#140 = PERSON_AND_ORGANIZATION ( #116, #178 ) ;
#141 = ADVANCED_FACE ( 'NONE', ( #19 ), #185, .T. ) ;
#142 = ORIENTED_EDGE ( 'NONE', *, *, #105, .T. ) ;
#143 = AXIS2_PLACEMENT_3D ( 'NONE', #58, #42, #22 ) ;
#144 = FACE_OUTER_BOUND ( 'NONE', #71, .T. ) ;
#145 = ORIENTED_EDGE ( 'NONE', *, *, #161, .T. ) ;
#146 = DIRECTION ( 'NONE',  ( 0.0000000000000000000, 1.000000000000000000, 0.0000000000000000000 ) ) ;
#147 = PRODUCT_RELATED_PRODUCT_CATEGORY ( 'detail', '', ( #34 ) ) ;
#148 = CARTESIAN_POINT ( 'NONE',  ( 1.330433075962094409E-15, -4.666531050389636845E-17, 0.3810511776651568372 ) ) ;
#149 = PRODUCT_DEFINITION_SHAPE ( 'NONE', 'NONE',  #98 ) ;
#150 = COORDINATED_UNIVERSAL_TIME_OFFSET ( 1, 0, .AHEAD. ) ;
#151 = CIRCLE ( 'NONE', #100, 0.6599999999999989209 ) ;
#152 = LOCAL_TIME ( 7, 53, 56.00000000000000000, #14 ) ;
#153 =( NAMED_UNIT ( * ) SI_UNIT ( $, .STERADIAN. ) SOLID_ANGLE_UNIT ( ) );
#154 = ADVANCED_FACE ( 'NONE', ( #39 ), #97, .F. ) ;
#155 = CC_DESIGN_APPROVAL ( #117, ( #160 ) ) ;
#156 = PERSON_AND_ORGANIZATION ( #116, #178 ) ;
#157 = CONICAL_SURFACE ( 'NONE', #221, 0.7499999999999977796, 0.5235987755982927094 ) ;
#158 = DIRECTION ( 'NONE',  ( 0.0000000000000000000, 1.000000000000000000, 0.0000000000000000000 ) ) ;
#159 = EDGE_LOOP ( 'NONE', ( #69 ) ) ;
#160 = SECURITY_CLASSIFICATION ( '', '', #15 ) ;
#161 = EDGE_CURVE ( 'NONE', #46, #46, #151, .T. ) ;
#162 = EDGE_LOOP ( 'NONE', ( #145 ) ) ;
#163 = ORIENTED_EDGE ( 'NONE', *, *, #109, .T. ) ;
#164 = AXIS2_PLACEMENT_3D ( 'NONE', #219, #133, #61 ) ;
#165 = DIRECTION ( 'NONE',  ( -3.491481338843133355E-15, 1.224646799147353207E-16, -1.000000000000000000 ) ) ;
#166 = ADVANCED_BREP_SHAPE_REPRESENTATION ( '50068', ( #9, #83, #164 ), #74 ) ;
#167 = DIRECTION ( 'NONE',  ( 2.918075673313998706E-31, 1.000000000000000000, 8.213652821859896120E-17 ) ) ;
#168 = LOCAL_TIME ( 7, 53, 56.00000000000000000, #122 ) ;
#169 = CALENDAR_DATE ( 2021, 8, 10 ) ;
#170 = CALENDAR_DATE ( 2021, 8, 10 ) ;
#171 = CC_DESIGN_APPROVAL ( #189, ( #54 ) ) ;
#172 = LOCAL_TIME ( 7, 53, 56.00000000000000000, #150 ) ;
#173 = APPROVAL_ROLE ( '' ) ;
#174 = ORIENTED_EDGE ( 'NONE', *, *, #96, .T. ) ;
#175 = CC_DESIGN_DATE_AND_TIME_ASSIGNMENT ( #85, #121, ( #160 ) ) ;
#176 = DIRECTION ( 'NONE',  ( 0.0000000000000000000, -1.000000000000000000, 0.0000000000000000000 ) ) ;
#177 = DIRECTION ( 'NONE',  ( 3.491481338843133355E-15, -1.224646799147353207E-16, 1.000000000000000000 ) ) ;
#178 = ORGANIZATION ( 'UNSPECIFIED', 'UNSPECIFIED', '' ) ;
#179 = DIRECTION ( 'NONE',  ( -3.491481338843133355E-15, 1.224646799147353207E-16, -1.000000000000000000 ) ) ;
#180 = FACE_BOUND ( 'NONE', #72, .T. ) ;
#181 = ORIENTED_EDGE ( 'NONE', *, *, #5, .F. ) ;
#182 = DATE_AND_TIME ( #169, #172 ) ;
#183 = VERTEX_POINT ( 'NONE', #95 ) ;
#184 = VERTEX_POINT ( 'NONE', #137 ) ;
#185 = CONICAL_SURFACE ( 'NONE', #86, 0.6599999999999989209, 1.047197551196592746 ) ;
#186 = PERSON_AND_ORGANIZATION ( #116, #178 ) ;
#187 = CARTESIAN_POINT ( 'NONE',  ( 0.0000000000000000000, 0.0000000000000000000, 0.0000000000000000000 ) ) ;
#188 = PERSON_AND_ORGANIZATION_ROLE ( 'creator' ) ;
#189 = APPROVAL ( #126, 'UNSPECIFIED' ) ;
#190 = DATE_AND_TIME ( #1, #168 ) ;
#191 = CIRCLE ( 'NONE', #143, 0.6599999999999996980 ) ;
#192 = AXIS2_PLACEMENT_3D ( 'NONE', #194, #193, #212 ) ;
#193 = DIRECTION ( 'NONE',  ( -3.491481338843133355E-15, 1.224646799147353207E-16, -1.000000000000000000 ) ) ;
#194 = CARTESIAN_POINT ( 'NONE',  ( 1.047444401652940007E-13, -3.673940397442059178E-15, 30.00000000000000000 ) ) ;
#195 = UNCERTAINTY_MEASURE_WITH_UNIT (LENGTH_MEASURE( 1.000000000000000082E-05 ), #80, 'distance_accuracy_value', 'NONE');
#196 = CC_DESIGN_PERSON_AND_ORGANIZATION_ASSIGNMENT ( #125, #205, ( #54 ) ) ;
#197 = DIRECTION ( 'NONE',  ( 0.0000000000000000000, 1.000000000000000000, 0.0000000000000000000 ) ) ;
#198 = DIRECTION ( 'NONE',  ( 3.491481338843133355E-15, -1.224646799147353207E-16, 1.000000000000000000 ) ) ;
#199 = CARTESIAN_POINT ( 'NONE',  ( 1.040461438975253740E-13, -3.649447461459112464E-15, 29.80000000000000071 ) ) ;
#200 = CARTESIAN_POINT ( 'NONE',  ( 3.910459099504309358E-14, 0.6599999999999982547, 11.19999999999999929 ) ) ;
#201 = APPROVAL_DATE_TIME ( #182, #81 ) ;
#202 = ADVANCED_FACE ( 'NONE', ( #136, #8 ), #26, .T. ) ;
#203 = APPLICATION_PROTOCOL_DEFINITION ( 'international standard', 'config_control_design', 1994, #41 ) ;
#204 = APPROVAL_STATUS ( 'not_yet_approved' ) ;
#205 = PERSON_AND_ORGANIZATION_ROLE ( 'creator' ) ;
#206 = CC_DESIGN_SECURITY_CLASSIFICATION ( #160, ( #54 ) ) ;
#207 = PERSON_AND_ORGANIZATION_ROLE ( 'design_supplier' ) ;
#208 = DIRECTION ( 'NONE',  ( -3.491481338843133355E-15, 1.224646799147353207E-16, -1.000000000000000000 ) ) ;
#209 = CLOSED_SHELL ( 'NONE', ( #75, #52, #2, #210, #154 ) ) ;
#210 = ADVANCED_FACE ( 'NONE', ( #94, #27 ), #68, .T. ) ;
#211 = CARTESIAN_POINT ( 'NONE',  ( 3.964885907157303174E-14, -1.390694769342083745E-15, 11.35588457268119811 ) ) ;
#212 = DIRECTION ( 'NONE',  ( 0.0000000000000000000, 1.000000000000000000, 0.0000000000000000000 ) ) ;
#213 = EDGE_LOOP ( 'NONE', ( #102 ) ) ;
#214 = EDGE_LOOP ( 'NONE', ( #181 ) ) ;
#215 = PERSON_AND_ORGANIZATION_ROLE ( 'design_owner' ) ;
#216 = DIRECTION ( 'NONE',  ( -3.491481338843133355E-15, 1.224646799147353207E-16, -1.000000000000000000 ) ) ;
#217 = AXIS2_PLACEMENT_3D ( 'NONE', #187, #216, #76 ) ;
#218 = CC_DESIGN_PERSON_AND_ORGANIZATION_ASSIGNMENT ( #118, #215, ( #34 ) ) ;
#219 = CARTESIAN_POINT ( 'NONE',  ( 0.0000000000000000000, 0.0000000000000000000, 0.0000000000000000000 ) ) ;
#220 = VERTEX_POINT ( 'NONE', #200 ) ;
#221 = AXIS2_PLACEMENT_3D ( 'NONE', #211, #177, #176 ) ;
#222 = CALENDAR_DATE ( 2021, 8, 10 ) ;
#223 = DATE_TIME_ROLE ( 'creation_date' ) ;
ENDSEC;
END-ISO-10303-21;
