ISO-10303-21;
HEADER;
FILE_DESCRIPTION (( 'STEP AP203' ),
    '1' );
FILE_NAME ('50057.step',
    '2021-10-08T08:11:23',
    ( '' ),
    ( '' ),
    'SwSTEP 2.0',
    'SolidWorks 2019',
    '' );
FILE_SCHEMA (( 'CONFIG_CONTROL_DESIGN' ));
ENDSEC;

DATA;
#1 = APPROVAL_DATE_TIME ( #86, #38 ) ;
#2 = EDGE_LOOP ( 'NONE', ( #156 ) ) ;
#3 = DIRECTION ( 'NONE',  ( -3.491481338843133355E-15, 1.224646799147353207E-16, -1.000000000000000000 ) ) ;
#4 = CARTESIAN_POINT ( 'NONE',  ( 1.047444401652940007E-13, -3.673940397442059178E-15, 30.00000000000000000 ) ) ;
#5 = FACE_BOUND ( 'NONE', #109, .T. ) ;
#6 = MECHANICAL_CONTEXT ( 'NONE', #190, 'mechanical' ) ;
#7 = CC_DESIGN_APPROVAL ( #13, ( #154 ) ) ;
#8 = CALENDAR_DATE ( 2021, 8, 10 ) ;
#9 = DIRECTION ( 'NONE',  ( 0.0000000000000000000, 0.0000000000000000000, 1.000000000000000000 ) ) ;
#10 = CALENDAR_DATE ( 2021, 8, 10 ) ;
#11 = SECURITY_CLASSIFICATION ( '', '', #195 ) ;
#12 = EDGE_CURVE ( 'NONE', #84, #84, #50, .T. ) ;
#13 = APPROVAL ( #204, 'UNSPECIFIED' ) ;
#14 = DATE_TIME_ROLE ( 'creation_date' ) ;
#15 = AXIS2_PLACEMENT_3D ( 'NONE', #182, #91, #33 ) ;
#16 = AXIS2_PLACEMENT_3D ( 'NONE', #97, #60, #130 ) ;
#17 = DIRECTION ( 'NONE',  ( -3.491481338843133355E-15, 1.224646799147353207E-16, -1.000000000000000000 ) ) ;
#18 = CARTESIAN_POINT ( 'NONE',  ( 3.491481338843133986E-14, -2.077181119106918979E-31, 10.00000000000000178 ) ) ;
#19 = ORIENTED_EDGE ( 'NONE', *, *, #12, .F. ) ;
#20 = DIRECTION ( 'NONE',  ( 4.275831445896959482E-31, 1.000000000000000000, 1.224646799147353207E-16 ) ) ;
#21 = DIRECTION ( 'NONE',  ( 0.0000000000000000000, 1.000000000000000000, 0.0000000000000000000 ) ) ;
#22 = CARTESIAN_POINT ( 'NONE',  ( 0.0000000000000000000, 0.0000000000000000000, 0.0000000000000000000 ) ) ;
#23 = PERSON_AND_ORGANIZATION_ROLE ( 'design_owner' ) ;
#24 = VERTEX_POINT ( 'NONE', #43 ) ;
#25 = ORIENTED_EDGE ( 'NONE', *, *, #12, .T. ) ;
#26 = DATE_AND_TIME ( #216, #218 ) ;
#27 = CARTESIAN_POINT ( 'NONE',  ( 3.564050415713791566E-14, 0.7499999999999963363, 10.20784609690826450 ) ) ;
#28 = PERSON_AND_ORGANIZATION_ROLE ( 'design_supplier' ) ;
#29 = APPROVAL_ROLE ( '' ) ;
#30 = ADVANCED_FACE ( 'NONE', ( #198, #126 ), #120, .T. ) ;
#31 = APPROVAL ( #155, 'UNSPECIFIED' ) ;
#32 = PERSON ( 'UNSPECIFIED', 'UNSPECIFIED', 'UNSPECIFIED', ('UNSPECIFIED'), ('UNSPECIFIED'), ('UNSPECIFIED') ) ;
#33 = DIRECTION ( 'NONE',  ( 4.275831445896958607E-31, 1.000000000000000000, 1.224646799147353207E-16 ) ) ;
#34 = EDGE_CURVE ( 'NONE', #169, #169, #179, .T. ) ;
#35 = PLANE ( 'NONE',  #15 ) ;
#36 = LOCAL_TIME ( 10, 11, 23.00000000000000000, #173 ) ;
#37 = ORIENTED_EDGE ( 'NONE', *, *, #94, .F. ) ;
#38 = APPROVAL ( #153, 'UNSPECIFIED' ) ;
#39 = PERSON_AND_ORGANIZATION ( #32, #135 ) ;
#40 = EDGE_CURVE ( 'NONE', #24, #24, #114, .T. ) ;
#41 = DESIGN_CONTEXT ( 'detailed design', #143, 'design' ) ;
#42 = EDGE_LOOP ( 'NONE', ( #87 ) ) ;
#43 = CARTESIAN_POINT ( 'NONE',  ( 1.269958845236544126E-15, 0.6299999999999985612, 0.3637306695894677033 ) ) ;
#44 = CIRCLE ( 'NONE', #75, 0.5500000000000000444 ) ;
#45 = EDGE_LOOP ( 'NONE', ( #162 ) ) ;
#46 = PERSON_AND_ORGANIZATION ( #32, #135 ) ;
#47 = CC_DESIGN_APPROVAL ( #31, ( #167 ) ) ;
#48 = COORDINATED_UNIVERSAL_TIME_OFFSET ( 1, 0, .AHEAD. ) ;
#49 = SHAPE_DEFINITION_REPRESENTATION ( #57, #103 ) ;
#50 = CIRCLE ( 'NONE', #123, 0.6299999999999997824 ) ;
#51 = CC_DESIGN_APPROVAL ( #38, ( #11 ) ) ;
#52 = DIRECTION ( 'NONE',  ( -3.057031657757524101E-31, -1.000000000000000000, -8.604779146710372001E-17 ) ) ;
#53 = CARTESIAN_POINT ( 'NONE',  ( 3.564050415713791566E-14, -1.250100604876750768E-15, 10.20784609690826450 ) ) ;
#54 = ADVANCED_FACE ( 'NONE', ( #112 ), #35, .F. ) ;
#55 = DIRECTION ( 'NONE',  ( 3.057031657757524101E-31, 1.000000000000000000, 8.604779146710372001E-17 ) ) ;
#56 = PRODUCT_RELATED_PRODUCT_CATEGORY ( 'detail', '', ( #157 ) ) ;
#57 = PRODUCT_DEFINITION_SHAPE ( 'NONE', 'NONE',  #154 ) ;
#58 = CARTESIAN_POINT ( 'NONE',  ( 1.269958845236543928E-15, -4.454416002644650803E-17, 0.3637306695894676478 ) ) ;
#59 = ORIENTED_EDGE ( 'NONE', *, *, #40, .T. ) ;
#60 = DIRECTION ( 'NONE',  ( -3.491481338843133355E-15, 1.224646799147353207E-16, -1.000000000000000000 ) ) ;
#61 = VERTEX_POINT ( 'NONE', #203 ) ;
#62 = VERTEX_POINT ( 'NONE', #121 ) ;
#63 = CARTESIAN_POINT ( 'NONE',  ( 0.0000000000000000000, 0.0000000000000000000, 0.0000000000000000000 ) ) ;
#64 = LOCAL_TIME ( 10, 11, 23.00000000000000000, #170 ) ;
#65 = COORDINATED_UNIVERSAL_TIME_OFFSET ( 1, 0, .AHEAD. ) ;
#66 = APPROVAL_DATE_TIME ( #159, #31 ) ;
#67 = FACE_OUTER_BOUND ( 'NONE', #106, .T. ) ;
#68 =( GEOMETRIC_REPRESENTATION_CONTEXT ( 3 ) GLOBAL_UNCERTAINTY_ASSIGNED_CONTEXT ( ( #107 ) ) GLOBAL_UNIT_ASSIGNED_CONTEXT ( ( #116, #185, #183 ) ) REPRESENTATION_CONTEXT ( 'NONE', 'WORKASPACE' ) );
#69 = APPROVAL_PERSON_ORGANIZATION ( #174, #38, #158 ) ;
#70 = PLANE ( 'NONE',  #125 ) ;
#71 = EDGE_LOOP ( 'NONE', ( #25 ) ) ;
#72 = DIRECTION ( 'NONE',  ( -3.491481338843133355E-15, 1.224646799147353207E-16, -1.000000000000000000 ) ) ;
#73 = ORIENTED_EDGE ( 'NONE', *, *, #175, .F. ) ;
#74 = DIRECTION ( 'NONE',  ( 0.0000000000000000000, -1.000000000000000000, 0.0000000000000000000 ) ) ;
#75 = AXIS2_PLACEMENT_3D ( 'NONE', #4, #17, #89 ) ;
#76 = CC_DESIGN_PERSON_AND_ORGANIZATION_ASSIGNMENT ( #39, #23, ( #157 ) ) ;
#77 = DIRECTION ( 'NONE',  ( 0.0000000000000000000, 1.000000000000000000, 0.0000000000000000000 ) ) ;
#78 = CYLINDRICAL_SURFACE ( 'NONE', #200, 0.6299999999999992273 ) ;
#79 = CIRCLE ( 'NONE', #80, 0.7500000000000001110 ) ;
#80 = AXIS2_PLACEMENT_3D ( 'NONE', #100, #118, #77 ) ;
#81 = LOCAL_TIME ( 10, 11, 23.00000000000000000, #48 ) ;
#82 = ADVANCED_FACE ( 'NONE', ( #93 ), #70, .F. ) ;
#83 = ORIENTED_EDGE ( 'NONE', *, *, #34, .F. ) ;
#84 = VERTEX_POINT ( 'NONE', #220 ) ;
#85 = DIRECTION ( 'NONE',  ( 1.000000000000000000, 0.0000000000000000000, 0.0000000000000000000 ) ) ;
#86 = DATE_AND_TIME ( #136, #211 ) ;
#87 = ORIENTED_EDGE ( 'NONE', *, *, #94, .T. ) ;
#88 = CALENDAR_DATE ( 2021, 8, 10 ) ;
#89 = DIRECTION ( 'NONE',  ( 0.0000000000000000000, 1.000000000000000000, 0.0000000000000000000 ) ) ;
#90 = ADVANCED_FACE ( 'NONE', ( #160, #177 ), #165, .T. ) ;
#91 = DIRECTION ( 'NONE',  ( -3.491481338843133355E-15, 1.224646799147353207E-16, -1.000000000000000000 ) ) ;
#92 = EDGE_LOOP ( 'NONE', ( #83 ) ) ;
#93 = FACE_OUTER_BOUND ( 'NONE', #71, .T. ) ;
#94 = EDGE_CURVE ( 'NONE', #61, #61, #44, .T. ) ;
#95 = DIRECTION ( 'NONE',  ( 0.0000000000000000000, 1.000000000000000000, 0.0000000000000000000 ) ) ;
#96 = CLOSED_SHELL ( 'NONE', ( #82, #108, #90, #30, #54 ) ) ;
#97 = CARTESIAN_POINT ( 'NONE',  ( 3.491481338843133986E-14, -1.224646799147353454E-15, 10.00000000000000178 ) ) ;
#98 = APPROVAL_PERSON_ORGANIZATION ( #171, #31, #29 ) ;
#99 = EDGE_LOOP ( 'NONE', ( #37 ) ) ;
#100 = CARTESIAN_POINT ( 'NONE',  ( 1.040461438975253740E-13, -3.649447461459112464E-15, 29.80000000000000071 ) ) ;
#101 = CC_DESIGN_PERSON_AND_ORGANIZATION_ASSIGNMENT ( #46, #28, ( #167 ) ) ;
#102 = PERSON_AND_ORGANIZATION_ROLE ( 'creator' ) ;
#103 = ADVANCED_BREP_SHAPE_REPRESENTATION ( '50057', ( #192, #115, #131 ), #68 ) ;
#104 = PERSON_AND_ORGANIZATION_ROLE ( 'classification_officer' ) ;
#105 = CONICAL_SURFACE ( 'NONE', #148, 0.6299999999999985612, 1.047197551196592746 ) ;
#106 = EDGE_LOOP ( 'NONE', ( #59 ) ) ;
#107 = UNCERTAINTY_MEASURE_WITH_UNIT (LENGTH_MEASURE( 1.000000000000000082E-05 ), #116, 'distance_accuracy_value', 'NONE');
#108 = ADVANCED_FACE ( 'NONE', ( #5, #201 ), #110, .T. ) ;
#109 = EDGE_LOOP ( 'NONE', ( #19 ) ) ;
#110 = CONICAL_SURFACE ( 'NONE', #206, 0.7499999999999976685, 0.5235987755982977054 ) ;
#111 = DIRECTION ( 'NONE',  ( -3.491481338843133355E-15, 1.224646799147353207E-16, -1.000000000000000000 ) ) ;
#112 = FACE_OUTER_BOUND ( 'NONE', #99, .T. ) ;
#113 = APPROVAL_ROLE ( '' ) ;
#114 = CIRCLE ( 'NONE', #172, 0.6299999999999985612 ) ;
#115 = MANIFOLD_SOLID_BREP ( 'Corps-Déplacer/Copier1[2]', #217 ) ;
#116 =( LENGTH_UNIT ( ) NAMED_UNIT ( * ) SI_UNIT ( .MILLI., .METRE. ) );
#117 = PERSON_AND_ORGANIZATION ( #32, #135 ) ;
#118 = DIRECTION ( 'NONE',  ( -3.491481338843133355E-15, 1.224646799147353207E-16, -1.000000000000000000 ) ) ;
#119 = EDGE_LOOP ( 'NONE', ( #187 ) ) ;
#120 = CONICAL_SURFACE ( 'NONE', #184, 0.5500000000000000444, 0.7853981633974516097 ) ;
#121 = CARTESIAN_POINT ( 'NONE',  ( 1.040461438975253740E-13, 0.7499999999999964473, 29.80000000000000071 ) ) ;
#122 = CC_DESIGN_SECURITY_CLASSIFICATION ( #11, ( #167 ) ) ;
#123 = AXIS2_PLACEMENT_3D ( 'NONE', #193, #72, #21 ) ;
#124 = PERSON_AND_ORGANIZATION ( #32, #135 ) ;
#125 = AXIS2_PLACEMENT_3D ( 'NONE', #166, #140, #212 ) ;
#126 = FACE_BOUND ( 'NONE', #42, .T. ) ;
#127 = CARTESIAN_POINT ( 'NONE',  ( 3.564050415713791566E-14, -1.250100604876750768E-15, 10.20784609690826450 ) ) ;
#128 = CARTESIAN_POINT ( 'NONE',  ( 0.0000000000000000000, 0.0000000000000000000, 0.0000000000000000000 ) ) ;
#129 = DIRECTION ( 'NONE',  ( -3.491481338843133355E-15, 1.224646799147353207E-16, -1.000000000000000000 ) ) ;
#130 = DIRECTION ( 'NONE',  ( 0.0000000000000000000, 1.000000000000000000, 0.0000000000000000000 ) ) ;
#131 = AXIS2_PLACEMENT_3D ( 'NONE', #63, #9, #85 ) ;
#132 = APPROVAL_DATE_TIME ( #26, #13 ) ;
#133 = FACE_OUTER_BOUND ( 'NONE', #161, .T. ) ;
#134 = CARTESIAN_POINT ( 'NONE',  ( 3.491481338843133986E-14, 0.6299999999999985612, 10.00000000000000178 ) ) ;
#135 = ORGANIZATION ( 'UNSPECIFIED', 'UNSPECIFIED', '' ) ;
#136 = CALENDAR_DATE ( 2021, 8, 10 ) ;
#137 = DATE_AND_TIME ( #8, #64 ) ;
#138 = ADVANCED_FACE ( 'NONE', ( #67 ), #105, .T. ) ;
#139 = FACE_OUTER_BOUND ( 'NONE', #142, .T. ) ;
#140 = DIRECTION ( 'NONE',  ( 3.491481338843133355E-15, -1.224646799147353207E-16, 1.000000000000000000 ) ) ;
#141 = CARTESIAN_POINT ( 'NONE',  ( 1.047444401652940007E-13, -3.673940397442059178E-15, 30.00000000000000000 ) ) ;
#142 = EDGE_LOOP ( 'NONE', ( #189 ) ) ;
#143 = APPLICATION_CONTEXT ( 'configuration controlled 3d designs of mechanical parts and assemblies' ) ;
#144 = DIRECTION ( 'NONE',  ( 4.275831445896959482E-31, 1.000000000000000000, 1.224646799147353454E-16 ) ) ;
#145 = ADVANCED_FACE ( 'NONE', ( #139 ), #210, .T. ) ;
#146 = CC_DESIGN_DATE_AND_TIME_ASSIGNMENT ( #152, #223, ( #11 ) ) ;
#147 = COORDINATED_UNIVERSAL_TIME_OFFSET ( 1, 0, .AHEAD. ) ;
#148 = AXIS2_PLACEMENT_3D ( 'NONE', #58, #202, #52 ) ;
#149 = VERTEX_POINT ( 'NONE', #134 ) ;
#150 = PERSON_AND_ORGANIZATION ( #32, #135 ) ;
#151 = FACE_OUTER_BOUND ( 'NONE', #45, .T. ) ;
#152 = DATE_AND_TIME ( #88, #36 ) ;
#153 = APPROVAL_STATUS ( 'not_yet_approved' ) ;
#154 = PRODUCT_DEFINITION ( 'UNKNOWN', '', #167, #41 ) ;
#155 = APPROVAL_STATUS ( 'not_yet_approved' ) ;
#156 = ORIENTED_EDGE ( 'NONE', *, *, #175, .T. ) ;
#157 = PRODUCT ( '50057', '50057', '', ( #6 ) ) ;
#158 = APPROVAL_ROLE ( '' ) ;
#159 = DATE_AND_TIME ( #10, #81 ) ;
#160 = FACE_OUTER_BOUND ( 'NONE', #92, .T. ) ;
#161 = EDGE_LOOP ( 'NONE', ( #215 ) ) ;
#162 = ORIENTED_EDGE ( 'NONE', *, *, #40, .F. ) ;
#163 = ADVANCED_FACE ( 'NONE', ( #151, #133 ), #78, .T. ) ;
#164 = CC_DESIGN_DATE_AND_TIME_ASSIGNMENT ( #137, #14, ( #154 ) ) ;
#165 = CYLINDRICAL_SURFACE ( 'NONE', #176, 0.7499999999999988898 ) ;
#166 = CARTESIAN_POINT ( 'NONE',  ( 3.491481338843133986E-14, -2.077181119106918979E-31, 10.00000000000000178 ) ) ;
#167 = PRODUCT_DEFINITION_FORMATION_WITH_SPECIFIED_SOURCE ( 'ANY', '', #157, .NOT_KNOWN. ) ;
#168 = CC_DESIGN_PERSON_AND_ORGANIZATION_ASSIGNMENT ( #124, #104, ( #11 ) ) ;
#169 = VERTEX_POINT ( 'NONE', #27 ) ;
#170 = COORDINATED_UNIVERSAL_TIME_OFFSET ( 1, 0, .AHEAD. ) ;
#171 = PERSON_AND_ORGANIZATION ( #32, #135 ) ;
#172 = AXIS2_PLACEMENT_3D ( 'NONE', #213, #3, #55 ) ;
#173 = COORDINATED_UNIVERSAL_TIME_OFFSET ( 1, 0, .AHEAD. ) ;
#174 = PERSON_AND_ORGANIZATION ( #32, #135 ) ;
#175 = EDGE_CURVE ( 'NONE', #62, #62, #79, .T. ) ;
#176 = AXIS2_PLACEMENT_3D ( 'NONE', #128, #111, #20 ) ;
#177 = FACE_OUTER_BOUND ( 'NONE', #2, .T. ) ;
#178 = DIRECTION ( 'NONE',  ( -3.491481338843133355E-15, 1.224646799147353207E-16, -1.000000000000000000 ) ) ;
#179 = CIRCLE ( 'NONE', #221, 0.7499999999999976685 ) ;
#180 = DIRECTION ( 'NONE',  ( 3.491481338843133355E-15, -1.224646799147353207E-16, 1.000000000000000000 ) ) ;
#181 = AXIS2_PLACEMENT_3D ( 'NONE', #18, #186, #205 ) ;
#182 = CARTESIAN_POINT ( 'NONE',  ( 1.047444401652940007E-13, 4.124339402320052999E-33, 30.00000000000000000 ) ) ;
#183 =( NAMED_UNIT ( * ) SI_UNIT ( $, .STERADIAN. ) SOLID_ANGLE_UNIT ( ) );
#184 = AXIS2_PLACEMENT_3D ( 'NONE', #141, #178, #95 ) ;
#185 =( NAMED_UNIT ( * ) PLANE_ANGLE_UNIT ( ) SI_UNIT ( $, .RADIAN. ) );
#186 = DIRECTION ( 'NONE',  ( 3.491481338843133355E-15, -1.224646799147353207E-16, 1.000000000000000000 ) ) ;
#187 = ORIENTED_EDGE ( 'NONE', *, *, #34, .T. ) ;
#188 = APPLICATION_PROTOCOL_DEFINITION ( 'international standard', 'config_control_design', 1994, #143 ) ;
#189 = ORIENTED_EDGE ( 'NONE', *, *, #191, .F. ) ;
#190 = APPLICATION_CONTEXT ( 'configuration controlled 3d designs of mechanical parts and assemblies' ) ;
#191 = EDGE_CURVE ( 'NONE', #149, #149, #196, .T. ) ;
#192 = MANIFOLD_SOLID_BREP ( 'Corps-Déplacer/Copier1[1]', #96 ) ;
#193 = CARTESIAN_POINT ( 'NONE',  ( 3.491481338843133986E-14, -1.224646799147353454E-15, 10.00000000000000178 ) ) ;
#194 = EDGE_LOOP ( 'NONE', ( #73 ) ) ;
#195 = SECURITY_CLASSIFICATION_LEVEL ( 'unclassified' ) ;
#196 = CIRCLE ( 'NONE', #16, 0.6299999999999997824 ) ;
#197 = APPROVAL_PERSON_ORGANIZATION ( #150, #13, #113 ) ;
#198 = FACE_OUTER_BOUND ( 'NONE', #194, .T. ) ;
#199 = DIRECTION ( 'NONE',  ( 0.0000000000000000000, 1.000000000000000000, 0.0000000000000000000 ) ) ;
#200 = AXIS2_PLACEMENT_3D ( 'NONE', #22, #214, #144 ) ;
#201 = FACE_OUTER_BOUND ( 'NONE', #119, .T. ) ;
#202 = DIRECTION ( 'NONE',  ( 3.491481338843133355E-15, -1.224646799147353207E-16, 1.000000000000000000 ) ) ;
#203 = CARTESIAN_POINT ( 'NONE',  ( 1.047444401652940007E-13, 0.5499999999999963807, 30.00000000000000000 ) ) ;
#204 = APPROVAL_STATUS ( 'not_yet_approved' ) ;
#205 = DIRECTION ( 'NONE',  ( -4.275831445896958607E-31, -1.000000000000000000, -1.224646799147353207E-16 ) ) ;
#206 = AXIS2_PLACEMENT_3D ( 'NONE', #127, #180, #74 ) ;
#207 = CC_DESIGN_PERSON_AND_ORGANIZATION_ASSIGNMENT ( #117, #102, ( #154 ) ) ;
#208 = PERSON_AND_ORGANIZATION ( #32, #135 ) ;
#209 = PERSON_AND_ORGANIZATION_ROLE ( 'creator' ) ;
#210 = PLANE ( 'NONE',  #181 ) ;
#211 = LOCAL_TIME ( 10, 11, 23.00000000000000000, #65 ) ;
#212 = DIRECTION ( 'NONE',  ( -4.275831445896958607E-31, -1.000000000000000000, -1.224646799147353207E-16 ) ) ;
#213 = CARTESIAN_POINT ( 'NONE',  ( 1.269958845236543928E-15, -4.454416002644650803E-17, 0.3637306695894676478 ) ) ;
#214 = DIRECTION ( 'NONE',  ( -3.491481338843133355E-15, 1.224646799147353207E-16, -1.000000000000000000 ) ) ;
#215 = ORIENTED_EDGE ( 'NONE', *, *, #191, .T. ) ;
#216 = CALENDAR_DATE ( 2021, 8, 10 ) ;
#217 = CLOSED_SHELL ( 'NONE', ( #138, #163, #145 ) ) ;
#218 = LOCAL_TIME ( 10, 11, 23.00000000000000000, #147 ) ;
#219 = APPLICATION_PROTOCOL_DEFINITION ( 'international standard', 'config_control_design', 1994, #190 ) ;
#220 = CARTESIAN_POINT ( 'NONE',  ( 3.491481338843133986E-14, 0.6299999999999985612, 10.00000000000000178 ) ) ;
#221 = AXIS2_PLACEMENT_3D ( 'NONE', #53, #129, #199 ) ;
#222 = CC_DESIGN_PERSON_AND_ORGANIZATION_ASSIGNMENT ( #208, #209, ( #167 ) ) ;
#223 = DATE_TIME_ROLE ( 'classification_date' ) ;
ENDSEC;
END-ISO-10303-21;
