ISO-10303-21;
HEADER;
FILE_DESCRIPTION (( 'STEP AP203' ),
    '1' );
FILE_NAME ('49835.step',
    '2021-11-01T10:35:24',
    ( '' ),
    ( '' ),
    'SwSTEP 2.0',
    'SolidWorks 2019',
    '' );
FILE_SCHEMA (( 'CONFIG_CONTROL_DESIGN' ));
ENDSEC;

DATA;
#1 = CARTESIAN_POINT ( 'NONE',  ( 1.316288464743861212E-13, 1.499999999999992228, 37.69999999999999574 ) ) ;
#2 = CC_DESIGN_DATE_AND_TIME_ASSIGNMENT ( #6, #203, ( #165 ) ) ;
#3 = ORGANIZATION ( 'UNSPECIFIED', 'UNSPECIFIED', '' ) ;
#4 = VERTEX_POINT ( 'NONE', #34 ) ;
#5 = DATE_TIME_ROLE ( 'creation_date' ) ;
#6 = DATE_AND_TIME ( #166, #191 ) ;
#7 = SHAPE_DEFINITION_REPRESENTATION ( #130, #118 ) ;
#8 = ORIENTED_EDGE ( 'NONE', *, *, #153, .F. ) ;
#9 = CARTESIAN_POINT ( 'NONE',  ( 1.326762908760390423E-13, 8.998558695971047118E-33, 38.00000000000000000 ) ) ;
#10 = PLANE ( 'NONE',  #222 ) ;
#11 = FACE_OUTER_BOUND ( 'NONE', #141, .T. ) ;
#12 = DIRECTION ( 'NONE',  ( 0.0000000000000000000, -1.000000000000000000, 0.0000000000000000000 ) ) ;
#13 =( LENGTH_UNIT ( ) NAMED_UNIT ( * ) SI_UNIT ( .MILLI., .METRE. ) );
#14 = CIRCLE ( 'NONE', #142, 1.499999999999996669 ) ;
#15 = APPROVAL_PERSON_ORGANIZATION ( #164, #147, #148 ) ;
#16 = ADVANCED_FACE ( 'NONE', ( #108 ), #182, .T. ) ;
#17 = PERSON_AND_ORGANIZATION_ROLE ( 'design_owner' ) ;
#18 = CARTESIAN_POINT ( 'NONE',  ( 2.614603961301707350E-14, 1.499999999999994449, 7.488523373199610589 ) ) ;
#19 = LOCAL_TIME ( 11, 35, 24.00000000000000000, #92 ) ;
#20 = CALENDAR_DATE ( 2021, 1, 11 ) ;
#21 = CARTESIAN_POINT ( 'NONE',  ( 1.361677722148822009E-14, 1.124819836996387048E-32, 3.899999999999999911 ) ) ;
#22 = APPROVAL_DATE_TIME ( #94, #212 ) ;
#23 = CONICAL_SURFACE ( 'NONE', #213, 1.199999999999995959, 0.7853981633974468357 ) ;
#24 = LOCAL_TIME ( 11, 35, 24.00000000000000000, #183 ) ;
#25 = PRODUCT_DEFINITION_FORMATION_WITH_SPECIFIED_SOURCE ( 'ANY', '', #27, .NOT_KNOWN. ) ;
#26 = PERSON_AND_ORGANIZATION ( #194, #3 ) ;
#27 = PRODUCT ( '49835', '49835', '', ( #71 ) ) ;
#28 = FACE_BOUND ( 'NONE', #146, .T. ) ;
#29 = ADVANCED_FACE ( 'NONE', ( #204, #28 ), #23, .T. ) ;
#30 = DIRECTION ( 'NONE',  ( -3.491481338843133355E-15, 1.224646799147353207E-16, -1.000000000000000000 ) ) ;
#31 = CARTESIAN_POINT ( 'NONE',  ( 1.361677722148821693E-14, -0.6500000000000003553, 3.899999999999999023 ) ) ;
#32 = VERTEX_POINT ( 'NONE', #210 ) ;
#33 = LOCAL_TIME ( 11, 35, 24.00000000000000000, #195 ) ;
#34 = CARTESIAN_POINT ( 'NONE',  ( -5.571612225602345935E-31, -0.6499999999999995781, -1.595773164707345587E-16 ) ) ;
#35 = EDGE_LOOP ( 'NONE', ( #178 ) ) ;
#36 = APPROVAL ( #69, 'UNSPECIFIED' ) ;
#37 = PERSON_AND_ORGANIZATION ( #194, #3 ) ;
#38 = AXIS2_PLACEMENT_3D ( 'NONE', #218, #50, #115 ) ;
#39 = ORIENTED_EDGE ( 'NONE', *, *, #88, .T. ) ;
#40 = CALENDAR_DATE ( 2021, 1, 11 ) ;
#41 = ADVANCED_FACE ( 'NONE', ( #171, #190 ), #136, .T. ) ;
#42 = SECURITY_CLASSIFICATION_LEVEL ( 'unclassified' ) ;
#43 = MANIFOLD_SOLID_BREP ( 'Corps-Déplacer/Copier1[1]', #122 ) ;
#44 = EDGE_LOOP ( 'NONE', ( #112 ) ) ;
#45 = CIRCLE ( 'NONE', #163, 1.199999999999995959 ) ;
#46 = PLANE ( 'NONE',  #51 ) ;
#47 = CARTESIAN_POINT ( 'NONE',  ( 1.361677722148821693E-14, -4.787319494122037009E-16, 3.899999999999999023 ) ) ;
#48 = CLOSED_SHELL ( 'NONE', ( #16, #120, #53 ) ) ;
#49 = CYLINDRICAL_SURFACE ( 'NONE', #180, 0.6499999999999998002 ) ;
#50 = DIRECTION ( 'NONE',  ( -3.491481338843133355E-15, 1.224646799147353207E-16, -1.000000000000000000 ) ) ;
#51 = AXIS2_PLACEMENT_3D ( 'NONE', #103, #220, #83 ) ;
#52 = DIRECTION ( 'NONE',  ( 3.491481338843133355E-15, -1.227517819005651059E-16, 1.000000000000000000 ) ) ;
#53 = ADVANCED_FACE ( 'NONE', ( #217 ), #46, .F. ) ;
#54 = APPLICATION_PROTOCOL_DEFINITION ( 'international standard', 'config_control_design', 1994, #128 ) ;
#55 = EDGE_LOOP ( 'NONE', ( #206 ) ) ;
#56 = PERSON_AND_ORGANIZATION ( #194, #3 ) ;
#57 = AXIS2_PLACEMENT_3D ( 'NONE', #139, #52, #177 ) ;
#58 = APPROVAL_STATUS ( 'not_yet_approved' ) ;
#59 = ORIENTED_EDGE ( 'NONE', *, *, #111, .T. ) ;
#60 = ORIENTED_EDGE ( 'NONE', *, *, #63, .F. ) ;
#61 = EDGE_LOOP ( 'NONE', ( #197 ) ) ;
#62 = DIRECTION ( 'NONE',  ( -3.491481338843133355E-15, 1.227517819005651059E-16, -1.000000000000000000 ) ) ;
#63 = EDGE_CURVE ( 'NONE', #161, #161, #167, .T. ) ;
#64 = FACE_OUTER_BOUND ( 'NONE', #168, .T. ) ;
#65 = FACE_OUTER_BOUND ( 'NONE', #80, .T. ) ;
#66 = DIRECTION ( 'NONE',  ( 0.0000000000000000000, 1.000000000000000000, 0.0000000000000000000 ) ) ;
#67 = AXIS2_PLACEMENT_3D ( 'NONE', #101, #62, #154 ) ;
#68 = DIRECTION ( 'NONE',  ( -4.275831445896958607E-31, -1.000000000000000000, -1.224646799147353207E-16 ) ) ;
#69 = APPROVAL_STATUS ( 'not_yet_approved' ) ;
#70 = CARTESIAN_POINT ( 'NONE',  ( 1.361677722148821693E-14, 0.0000000000000000000, 3.899999999999999023 ) ) ;
#71 = MECHANICAL_CONTEXT ( 'NONE', #219, 'mechanical' ) ;
#72 =( GEOMETRIC_REPRESENTATION_CONTEXT ( 3 ) GLOBAL_UNCERTAINTY_ASSIGNED_CONTEXT ( ( #175 ) ) GLOBAL_UNIT_ASSIGNED_CONTEXT ( ( #13, #119, #192 ) ) REPRESENTATION_CONTEXT ( 'NONE', 'WORKASPACE' ) );
#73 = PRODUCT_RELATED_PRODUCT_CATEGORY ( 'detail', '', ( #27 ) ) ;
#74 = FACE_OUTER_BOUND ( 'NONE', #44, .T. ) ;
#75 = DATE_AND_TIME ( #40, #19 ) ;
#76 = PRODUCT_DEFINITION ( 'UNKNOWN', '', #25, #79 ) ;
#77 = ORIENTED_EDGE ( 'NONE', *, *, #111, .F. ) ;
#78 = LOCAL_TIME ( 11, 35, 24.00000000000000000, #181 ) ;
#79 = DESIGN_CONTEXT ( 'detailed design', #128, 'design' ) ;
#80 = EDGE_LOOP ( 'NONE', ( #77 ) ) ;
#81 = CARTESIAN_POINT ( 'NONE',  ( -6.413731847436034514E-31, 0.0000000000000000000, -1.836965810494968570E-16 ) ) ;
#82 = ADVANCED_FACE ( 'NONE', ( #85 ), #170, .F. ) ;
#83 = DIRECTION ( 'NONE',  ( -4.275831445896958607E-31, -1.000000000000000000, -1.224646799147353207E-16 ) ) ;
#84 = CC_DESIGN_PERSON_AND_ORGANIZATION_ASSIGNMENT ( #56, #202, ( #25 ) ) ;
#85 = FACE_OUTER_BOUND ( 'NONE', #55, .T. ) ;
#86 = DIRECTION ( 'NONE',  ( 3.491481338843133355E-15, -1.227517819005651059E-16, 1.000000000000000000 ) ) ;
#87 = DIRECTION ( 'NONE',  ( -4.365601186994270652E-31, -1.000000000000000000, -1.227517819005651059E-16 ) ) ;
#88 = EDGE_CURVE ( 'NONE', #4, #4, #198, .T. ) ;
#89 = DIRECTION ( 'NONE',  ( 1.000000000000000000, 0.0000000000000000000, 0.0000000000000000000 ) ) ;
#90 = APPROVAL_PERSON_ORGANIZATION ( #26, #212, #93 ) ;
#91 = DIRECTION ( 'NONE',  ( 3.491481338843133355E-15, -1.224646799147353207E-16, 1.000000000000000000 ) ) ;
#92 = COORDINATED_UNIVERSAL_TIME_OFFSET ( 1, 0, .AHEAD. ) ;
#93 = APPROVAL_ROLE ( '' ) ;
#94 = DATE_AND_TIME ( #110, #24 ) ;
#95 = ADVANCED_FACE ( 'NONE', ( #65 ), #10, .F. ) ;
#96 = PERSON_AND_ORGANIZATION_ROLE ( 'creator' ) ;
#97 = CARTESIAN_POINT ( 'NONE',  ( 1.326762908760390423E-13, -4.653657836759941941E-15, 38.00000000000000000 ) ) ;
#98 = AXIS2_PLACEMENT_3D ( 'NONE', #169, #86, #155 ) ;
#99 = EDGE_CURVE ( 'NONE', #158, #158, #14, .T. ) ;
#100 = CIRCLE ( 'NONE', #57, 0.6500000000000000222 ) ;
#101 = CARTESIAN_POINT ( 'NONE',  ( 2.614603961301707350E-14, -4.404976384520788793E-16, 7.488523373199610589 ) ) ;
#102 = CC_DESIGN_DATE_AND_TIME_ASSIGNMENT ( #162, #5, ( #76 ) ) ;
#103 = CARTESIAN_POINT ( 'NONE',  ( -8.551680453529350800E-31, 2.999525725151307090E-32, -2.449298628175645296E-16 ) ) ;
#104 = PERSON_AND_ORGANIZATION ( #194, #3 ) ;
#105 = CALENDAR_DATE ( 2021, 1, 11 ) ;
#106 = EDGE_LOOP ( 'NONE', ( #126 ) ) ;
#107 = PERSON_AND_ORGANIZATION_ROLE ( 'creator' ) ;
#108 = FACE_OUTER_BOUND ( 'NONE', #106, .T. ) ;
#109 = APPROVAL_DATE_TIME ( #75, #147 ) ;
#110 = CALENDAR_DATE ( 2021, 1, 11 ) ;
#111 = EDGE_CURVE ( 'NONE', #32, #32, #45, .T. ) ;
#112 = ORIENTED_EDGE ( 'NONE', *, *, #63, .T. ) ;
#113 = CC_DESIGN_PERSON_AND_ORGANIZATION_ASSIGNMENT ( #144, #96, ( #25 ) ) ;
#114 = AXIS2_PLACEMENT_3D ( 'NONE', #187, #135, #68 ) ;
#115 = DIRECTION ( 'NONE',  ( 4.275831445896958607E-31, 1.000000000000000000, 1.224646799147353207E-16 ) ) ;
#116 = DIRECTION ( 'NONE',  ( 0.0000000000000000000, 1.000000000000000000, 0.0000000000000000000 ) ) ;
#117 = DIRECTION ( 'NONE',  ( 3.491481338843133355E-15, -1.227517819005651059E-16, 1.000000000000000000 ) ) ;
#118 = ADVANCED_BREP_SHAPE_REPRESENTATION ( '49835', ( #43, #201, #143 ), #72 ) ;
#119 =( NAMED_UNIT ( * ) PLANE_ANGLE_UNIT ( ) SI_UNIT ( $, .RADIAN. ) );
#120 = ADVANCED_FACE ( 'NONE', ( #64, #11 ), #49, .T. ) ;
#121 = CARTESIAN_POINT ( 'NONE',  ( 0.0000000000000000000, 0.0000000000000000000, 0.0000000000000000000 ) ) ;
#122 = CLOSED_SHELL ( 'NONE', ( #41, #29, #95, #189, #82 ) ) ;
#123 = AXIS2_PLACEMENT_3D ( 'NONE', #47, #117, #12 ) ;
#124 = EDGE_LOOP ( 'NONE', ( #214 ) ) ;
#125 = APPROVAL_DATE_TIME ( #176, #36 ) ;
#126 = ORIENTED_EDGE ( 'NONE', *, *, #153, .T. ) ;
#127 = PERSON_AND_ORGANIZATION_ROLE ( 'classification_officer' ) ;
#128 = APPLICATION_CONTEXT ( 'configuration controlled 3d designs of mechanical parts and assemblies' ) ;
#129 = DIRECTION ( 'NONE',  ( -4.275831445896958607E-31, -1.000000000000000000, -1.224646799147353207E-16 ) ) ;
#130 = PRODUCT_DEFINITION_SHAPE ( 'NONE', 'NONE',  #76 ) ;
#131 = EDGE_LOOP ( 'NONE', ( #60 ) ) ;
#132 = DIRECTION ( 'NONE',  ( 4.275831445896958607E-31, 1.000000000000000000, 1.224646799147353207E-16 ) ) ;
#133 = AXIS2_PLACEMENT_3D ( 'NONE', #70, #211, #87 ) ;
#134 = DIRECTION ( 'NONE',  ( -4.285855558155653280E-31, -1.000000000000000000, -1.227517819005651305E-16 ) ) ;
#135 = DIRECTION ( 'NONE',  ( 3.491481338843133355E-15, -1.224646799147353207E-16, 1.000000000000000000 ) ) ;
#136 = CYLINDRICAL_SURFACE ( 'NONE', #38, 1.499999999999994893 ) ;
#137 = APPROVAL_ROLE ( '' ) ;
#138 = FACE_OUTER_BOUND ( 'NONE', #196, .T. ) ;
#139 = CARTESIAN_POINT ( 'NONE',  ( 1.361677722148821693E-14, -4.787319494122037009E-16, 3.899999999999999023 ) ) ;
#140 = CC_DESIGN_PERSON_AND_ORGANIZATION_ASSIGNMENT ( #37, #107, ( #76 ) ) ;
#141 = EDGE_LOOP ( 'NONE', ( #8 ) ) ;
#142 = AXIS2_PLACEMENT_3D ( 'NONE', #188, #174, #66 ) ;
#143 = AXIS2_PLACEMENT_3D ( 'NONE', #121, #159, #89 ) ;
#144 = PERSON_AND_ORGANIZATION ( #194, #3 ) ;
#145 = PERSON_AND_ORGANIZATION ( #194, #3 ) ;
#146 = EDGE_LOOP ( 'NONE', ( #59 ) ) ;
#147 = APPROVAL ( #58, 'UNSPECIFIED' ) ;
#148 = APPROVAL_ROLE ( '' ) ;
#149 = TOROIDAL_SURFACE ( 'NONE', #133, 8.650000000000000355, 8.000000000000000000 ) ;
#150 = DIRECTION ( 'NONE',  ( 3.491481338843133355E-15, -1.227517819005651059E-16, 1.000000000000000000 ) ) ;
#151 = CARTESIAN_POINT ( 'NONE',  ( 1.326762908760390423E-13, -4.653657836759941941E-15, 38.00000000000000000 ) ) ;
#152 = CC_DESIGN_APPROVAL ( #212, ( #25 ) ) ;
#153 = EDGE_CURVE ( 'NONE', #157, #157, #215, .T. ) ;
#154 = DIRECTION ( 'NONE',  ( 0.0000000000000000000, 1.000000000000000000, 0.0000000000000000000 ) ) ;
#155 = DIRECTION ( 'NONE',  ( -4.285855558155652404E-31, -1.000000000000000000, -1.227517819005651059E-16 ) ) ;
#156 = CC_DESIGN_APPROVAL ( #147, ( #165 ) ) ;
#157 = VERTEX_POINT ( 'NONE', #223 ) ;
#158 = VERTEX_POINT ( 'NONE', #1 ) ;
#159 = DIRECTION ( 'NONE',  ( 0.0000000000000000000, 0.0000000000000000000, 1.000000000000000000 ) ) ;
#160 = CC_DESIGN_PERSON_AND_ORGANIZATION_ASSIGNMENT ( #193, #17, ( #27 ) ) ;
#161 = VERTEX_POINT ( 'NONE', #18 ) ;
#162 = DATE_AND_TIME ( #20, #78 ) ;
#163 = AXIS2_PLACEMENT_3D ( 'NONE', #151, #173, #207 ) ;
#164 = PERSON_AND_ORGANIZATION ( #194, #3 ) ;
#165 = SECURITY_CLASSIFICATION ( '', '', #42 ) ;
#166 = CALENDAR_DATE ( 2021, 1, 11 ) ;
#167 = CIRCLE ( 'NONE', #67, 1.499999999999994893 ) ;
#168 = EDGE_LOOP ( 'NONE', ( #39 ) ) ;
#169 = CARTESIAN_POINT ( 'NONE',  ( -2.785806112801173406E-31, -1.275488267902078587E-32, -7.978865823536729169E-17 ) ) ;
#170 = PLANE ( 'NONE',  #114 ) ;
#171 = FACE_OUTER_BOUND ( 'NONE', #35, .T. ) ;
#172 = CC_DESIGN_APPROVAL ( #36, ( #76 ) ) ;
#173 = DIRECTION ( 'NONE',  ( -3.491481338843133355E-15, 1.224646799147353207E-16, -1.000000000000000000 ) ) ;
#174 = DIRECTION ( 'NONE',  ( -3.491481338843133355E-15, 1.224646799147353207E-16, -1.000000000000000000 ) ) ;
#175 = UNCERTAINTY_MEASURE_WITH_UNIT (LENGTH_MEASURE( 1.000000000000000082E-05 ), #13, 'distance_accuracy_value', 'NONE');
#176 = DATE_AND_TIME ( #105, #33 ) ;
#177 = DIRECTION ( 'NONE',  ( 0.0000000000000000000, -1.000000000000000000, 0.0000000000000000000 ) ) ;
#178 = ORIENTED_EDGE ( 'NONE', *, *, #99, .T. ) ;
#179 = AXIS2_PLACEMENT_3D ( 'NONE', #21, #91, #129 ) ;
#180 = AXIS2_PLACEMENT_3D ( 'NONE', #81, #150, #134 ) ;
#181 = COORDINATED_UNIVERSAL_TIME_OFFSET ( 1, 0, .AHEAD. ) ;
#182 = PLANE ( 'NONE',  #179 ) ;
#183 = COORDINATED_UNIVERSAL_TIME_OFFSET ( 1, 0, .AHEAD. ) ;
#184 = EDGE_CURVE ( 'NONE', #209, #209, #100, .T. ) ;
#185 = CC_DESIGN_SECURITY_CLASSIFICATION ( #165, ( #25 ) ) ;
#186 = COORDINATED_UNIVERSAL_TIME_OFFSET ( 1, 0, .AHEAD. ) ;
#187 = CARTESIAN_POINT ( 'NONE',  ( 1.361677722148822009E-14, 1.124819836996387048E-32, 3.899999999999999911 ) ) ;
#188 = CARTESIAN_POINT ( 'NONE',  ( 1.316288464743861212E-13, -4.616918432785521081E-15, 37.69999999999999574 ) ) ;
#189 = ADVANCED_FACE ( 'NONE', ( #138, #74 ), #149, .F. ) ;
#190 = FACE_OUTER_BOUND ( 'NONE', #131, .T. ) ;
#191 = LOCAL_TIME ( 11, 35, 24.00000000000000000, #186 ) ;
#192 =( NAMED_UNIT ( * ) SI_UNIT ( $, .STERADIAN. ) SOLID_ANGLE_UNIT ( ) );
#193 = PERSON_AND_ORGANIZATION ( #194, #3 ) ;
#194 = PERSON ( 'UNSPECIFIED', 'UNSPECIFIED', 'UNSPECIFIED', ('UNSPECIFIED'), ('UNSPECIFIED'), ('UNSPECIFIED') ) ;
#195 = COORDINATED_UNIVERSAL_TIME_OFFSET ( 1, 0, .AHEAD. ) ;
#196 = EDGE_LOOP ( 'NONE', ( #216 ) ) ;
#197 = ORIENTED_EDGE ( 'NONE', *, *, #99, .F. ) ;
#198 = CIRCLE ( 'NONE', #98, 0.6499999999999995781 ) ;
#199 = APPROVAL_PERSON_ORGANIZATION ( #104, #36, #137 ) ;
#200 = APPROVAL_STATUS ( 'not_yet_approved' ) ;
#201 = MANIFOLD_SOLID_BREP ( 'Corps-Déplacer/Copier1[2]', #48 ) ;
#202 = PERSON_AND_ORGANIZATION_ROLE ( 'design_supplier' ) ;
#203 = DATE_TIME_ROLE ( 'classification_date' ) ;
#204 = FACE_OUTER_BOUND ( 'NONE', #61, .T. ) ;
#205 = CC_DESIGN_PERSON_AND_ORGANIZATION_ASSIGNMENT ( #145, #127, ( #165 ) ) ;
#206 = ORIENTED_EDGE ( 'NONE', *, *, #184, .F. ) ;
#207 = DIRECTION ( 'NONE',  ( 0.0000000000000000000, 1.000000000000000000, 0.0000000000000000000 ) ) ;
#208 = APPLICATION_PROTOCOL_DEFINITION ( 'international standard', 'config_control_design', 1994, #219 ) ;
#209 = VERTEX_POINT ( 'NONE', #31 ) ;
#210 = CARTESIAN_POINT ( 'NONE',  ( 1.326762908760390423E-13, 1.199999999999991518, 38.00000000000000000 ) ) ;
#211 = DIRECTION ( 'NONE',  ( 3.491481338843133355E-15, -1.227517819005651059E-16, 1.000000000000000000 ) ) ;
#212 = APPROVAL ( #200, 'UNSPECIFIED' ) ;
#213 = AXIS2_PLACEMENT_3D ( 'NONE', #97, #221, #116 ) ;
#214 = ORIENTED_EDGE ( 'NONE', *, *, #88, .F. ) ;
#215 = CIRCLE ( 'NONE', #123, 0.6500000000000000222 ) ;
#216 = ORIENTED_EDGE ( 'NONE', *, *, #184, .T. ) ;
#217 = FACE_OUTER_BOUND ( 'NONE', #124, .T. ) ;
#218 = CARTESIAN_POINT ( 'NONE',  ( 0.0000000000000000000, 0.0000000000000000000, 0.0000000000000000000 ) ) ;
#219 = APPLICATION_CONTEXT ( 'configuration controlled 3d designs of mechanical parts and assemblies' ) ;
#220 = DIRECTION ( 'NONE',  ( 3.491481338843133355E-15, -1.224646799147353207E-16, 1.000000000000000000 ) ) ;
#221 = DIRECTION ( 'NONE',  ( -3.491481338843133355E-15, 1.224646799147353207E-16, -1.000000000000000000 ) ) ;
#222 = AXIS2_PLACEMENT_3D ( 'NONE', #9, #30, #132 ) ;
#223 = CARTESIAN_POINT ( 'NONE',  ( 1.361677722148821693E-14, -0.6500000000000003553, 3.899999999999999023 ) ) ;
ENDSEC;
END-ISO-10303-21;
