ISO-10303-21;
HEADER;
FILE_DESCRIPTION (( 'STEP AP203' ),
    '1' );
FILE_NAME ('49693.step',
    '2021-11-16T15:44:55',
    ( '' ),
    ( '' ),
    'SwSTEP 2.0',
    'SolidWorks 2019',
    '' );
FILE_SCHEMA (( 'CONFIG_CONTROL_DESIGN' ));
ENDSEC;

DATA;
#1 = COORDINATED_UNIVERSAL_TIME_OFFSET ( 1, 0, .AHEAD. ) ;
#2 = DIRECTION ( 'NONE',  ( 4.275831445896958607E-31, 1.000000000000000000, 1.224646799147353207E-16 ) ) ;
#3 = PERSON_AND_ORGANIZATION_ROLE ( 'creator' ) ;
#4 = PERSON_AND_ORGANIZATION ( #190, #166 ) ;
#5 = PRODUCT_DEFINITION ( 'UNKNOWN', '', #152, #161 ) ;
#6 = DATE_AND_TIME ( #137, #181 ) ;
#7 = ORIENTED_EDGE ( 'NONE', *, *, #143, .T. ) ;
#8 = ADVANCED_FACE ( 'NONE', ( #135 ), #29, .T. ) ;
#9 = CARTESIAN_POINT ( 'NONE',  ( -3.340620559062109808E-30, 9.076657989747723686E-32, -9.567917553782459775E-16 ) ) ;
#10 = APPROVAL_PERSON_ORGANIZATION ( #68, #216, #204 ) ;
#11 = AXIS2_PLACEMENT_3D ( 'NONE', #189, #119, #193 ) ;
#12 = MANIFOLD_SOLID_BREP ( 'Corps-Déplacer/Copier1[2]', #41 ) ;
#13 = FACE_BOUND ( 'NONE', #114, .T. ) ;
#14 = VERTEX_POINT ( 'NONE', #169 ) ;
#15 = FACE_OUTER_BOUND ( 'NONE', #186, .T. ) ;
#16 = CARTESIAN_POINT ( 'NONE',  ( 6.982962677686241073E-16, -2.453312193277547009E-17, 0.1999999999999992895 ) ) ;
#17 = PLANE ( 'NONE',  #11 ) ;
#18 = CC_DESIGN_APPROVAL ( #124, ( #159 ) ) ;
#19 = PERSON_AND_ORGANIZATION ( #190, #166 ) ;
#20 = PERSON_AND_ORGANIZATION ( #190, #166 ) ;
#21 = EDGE_LOOP ( 'NONE', ( #170 ) ) ;
#22 = APPROVAL ( #160, 'UNSPECIFIED' ) ;
#23 = COORDINATED_UNIVERSAL_TIME_OFFSET ( 1, 0, .AHEAD. ) ;
#24 = LOCAL_TIME ( 16, 44, 55.00000000000000000, #31 ) ;
#25 = EDGE_LOOP ( 'NONE', ( #111 ) ) ;
#26 = AXIS2_PLACEMENT_3D ( 'NONE', #66, #112, #113 ) ;
#27 = DIRECTION ( 'NONE',  ( 3.491481338843133355E-15, -1.226656096638776648E-16, 1.000000000000000000 ) ) ;
#28 = ADVANCED_FACE ( 'NONE', ( #150, #58 ), #171, .T. ) ;
#29 = PLANE ( 'NONE',  #133 ) ;
#30 = ADVANCED_FACE ( 'NONE', ( #115, #13 ), #196, .T. ) ;
#31 = COORDINATED_UNIVERSAL_TIME_OFFSET ( 1, 0, .AHEAD. ) ;
#32 = EDGE_LOOP ( 'NONE', ( #97 ) ) ;
#33 = CARTESIAN_POINT ( 'NONE',  ( 0.0000000000000000000, 0.0000000000000000000, 0.0000000000000000000 ) ) ;
#34 = CIRCLE ( 'NONE', #158, 7.800000000000001599 ) ;
#35 = DIRECTION ( 'NONE',  ( 3.491481338843133355E-15, -1.226656096638776648E-16, 1.000000000000000000 ) ) ;
#36 = EDGE_LOOP ( 'NONE', ( #7 ) ) ;
#37 = CC_DESIGN_PERSON_AND_ORGANIZATION_ASSIGNMENT ( #197, #3, ( #5 ) ) ;
#38 = DIRECTION ( 'NONE',  ( 1.000000000000000000, 0.0000000000000000000, 0.0000000000000000000 ) ) ;
#39 = FACE_OUTER_BOUND ( 'NONE', #25, .T. ) ;
#40 = CALENDAR_DATE ( 2021, 16, 11 ) ;
#41 = CLOSED_SHELL ( 'NONE', ( #76, #8, #28, #156 ) ) ;
#42 = LOCAL_TIME ( 16, 44, 55.00000000000000000, #1 ) ;
#43 = APPROVAL_ROLE ( '' ) ;
#44 = APPROVAL_ROLE ( '' ) ;
#45 = ORIENTED_EDGE ( 'NONE', *, *, #103, .F. ) ;
#46 = ADVANCED_FACE ( 'NONE', ( #205 ), #17, .F. ) ;
#47 = PERSON_AND_ORGANIZATION_ROLE ( 'creator' ) ;
#48 = PERSON_AND_ORGANIZATION ( #190, #166 ) ;
#49 = EDGE_CURVE ( 'NONE', #167, #167, #78, .T. ) ;
#50 = EDGE_LOOP ( 'NONE', ( #182 ) ) ;
#51 = PLANE ( 'NONE',  #26 ) ;
#52 = FACE_OUTER_BOUND ( 'NONE', #126, .T. ) ;
#53 = CC_DESIGN_PERSON_AND_ORGANIZATION_ASSIGNMENT ( #48, #63, ( #159 ) ) ;
#54 = PERSON_AND_ORGANIZATION_ROLE ( 'design_owner' ) ;
#55 = LOCAL_TIME ( 16, 44, 55.00000000000000000, #77 ) ;
#56 =( NAMED_UNIT ( * ) PLANE_ANGLE_UNIT ( ) SI_UNIT ( $, .RADIAN. ) );
#57 = CARTESIAN_POINT ( 'NONE',  ( -6.681241118124219615E-30, -7.800000000000001599, -1.913583510756491955E-15 ) ) ;
#58 = FACE_OUTER_BOUND ( 'NONE', #50, .T. ) ;
#59 = DIRECTION ( 'NONE',  ( 0.0000000000000000000, 1.000000000000000000, 0.0000000000000000000 ) ) ;
#60 = DIRECTION ( 'NONE',  ( 4.275831445896957731E-31, 1.000000000000000000, 1.224646799147353454E-16 ) ) ;
#61 = UNCERTAINTY_MEASURE_WITH_UNIT (LENGTH_MEASURE( 1.000000000000000082E-05 ), #148, 'distance_accuracy_value', 'NONE');
#62 = CC_DESIGN_SECURITY_CLASSIFICATION ( #159, ( #152 ) ) ;
#63 = PERSON_AND_ORGANIZATION_ROLE ( 'classification_officer' ) ;
#64 = ORIENTED_EDGE ( 'NONE', *, *, #103, .T. ) ;
#65 = CIRCLE ( 'NONE', #163, 7.500000000000000888 ) ;
#66 = CARTESIAN_POINT ( 'NONE',  ( 3.212162831735682182E-13, 5.624099184981950155E-32, 92.00000000000000000 ) ) ;
#67 = CC_DESIGN_PERSON_AND_ORGANIZATION_ASSIGNMENT ( #144, #54, ( #139 ) ) ;
#68 = PERSON_AND_ORGANIZATION ( #190, #166 ) ;
#69 = AXIS2_PLACEMENT_3D ( 'NONE', #81, #185, #149 ) ;
#70 = DIRECTION ( 'NONE',  ( 0.0000000000000000000, 1.000000000000000000, 0.0000000000000000000 ) ) ;
#71 = CARTESIAN_POINT ( 'NONE',  ( 1.117274028429802674E-13, 7.999999999999989342, 32.00000000000000000 ) ) ;
#72 = CARTESIAN_POINT ( 'NONE',  ( 1.117274028429802674E-13, -3.918869757271530263E-15, 32.00000000000000000 ) ) ;
#73 = EDGE_LOOP ( 'NONE', ( #209 ) ) ;
#74 = CC_DESIGN_APPROVAL ( #216, ( #5 ) ) ;
#75 = DIRECTION ( 'NONE',  ( 0.0000000000000000000, 1.000000000000000000, 0.0000000000000000000 ) ) ;
#76 = ADVANCED_FACE ( 'NONE', ( #173, #15 ), #206, .T. ) ;
#77 = COORDINATED_UNIVERSAL_TIME_OFFSET ( 1, 0, .AHEAD. ) ;
#78 = CIRCLE ( 'NONE', #165, 7.999999999999992895 ) ;
#79 = CALENDAR_DATE ( 2021, 16, 11 ) ;
#80 = ORIENTED_EDGE ( 'NONE', *, *, #176, .T. ) ;
#81 = CARTESIAN_POINT ( 'NONE',  ( -1.282745718361711308E-30, 4.499266316090771540E-32, -3.673929756092398379E-16 ) ) ;
#82 = AXIS2_PLACEMENT_3D ( 'NONE', #147, #192, #38 ) ;
#83 = PRODUCT_RELATED_PRODUCT_CATEGORY ( 'detail', '', ( #139 ) ) ;
#84 = DIRECTION ( 'NONE',  ( -3.491481338843133355E-15, 1.224646799147353207E-16, -1.000000000000000000 ) ) ;
#85 = VERTEX_POINT ( 'NONE', #208 ) ;
#86 = CARTESIAN_POINT ( 'NONE',  ( 3.212162831735682182E-13, -1.126675055215564941E-14, 92.00000000000000000 ) ) ;
#87 = DIRECTION ( 'NONE',  ( -3.491481338843133355E-15, 1.224646799147353207E-16, -1.000000000000000000 ) ) ;
#88 = AXIS2_PLACEMENT_3D ( 'NONE', #33, #91, #60 ) ;
#89 = CARTESIAN_POINT ( 'NONE',  ( 1.117274028429802674E-13, 5.999039130647421673E-32, 32.00000000000000000 ) ) ;
#90 = VERTEX_POINT ( 'NONE', #57 ) ;
#91 = DIRECTION ( 'NONE',  ( -3.491481338843133355E-15, 1.224646799147353207E-16, -1.000000000000000000 ) ) ;
#92 = MANIFOLD_SOLID_BREP ( 'Corps-Déplacer/Copier1[1]', #110 ) ;
#93 = DATE_AND_TIME ( #213, #104 ) ;
#94 = APPROVAL_DATE_TIME ( #107, #216 ) ;
#95 = ORIENTED_EDGE ( 'NONE', *, *, #49, .F. ) ;
#96 = AXIS2_PLACEMENT_3D ( 'NONE', #86, #146, #118 ) ;
#97 = ORIENTED_EDGE ( 'NONE', *, *, #183, .F. ) ;
#98 = CIRCLE ( 'NONE', #125, 7.999999999999992895 ) ;
#99 = CIRCLE ( 'NONE', #223, 8.000000000000000000 ) ;
#100 = DIRECTION ( 'NONE',  ( -4.275831445896958607E-31, -1.000000000000000000, -1.224646799147353207E-16 ) ) ;
#101 = CALENDAR_DATE ( 2021, 16, 11 ) ;
#102 = CARTESIAN_POINT ( 'NONE',  ( 1.117274028429802674E-13, -3.918869757271530263E-15, 32.00000000000000000 ) ) ;
#103 = EDGE_CURVE ( 'NONE', #85, #85, #65, .T. ) ;
#104 = LOCAL_TIME ( 16, 44, 55.00000000000000000, #23 ) ;
#105 = DIRECTION ( 'NONE',  ( -3.491481338843133355E-15, 1.224646799147353207E-16, -1.000000000000000000 ) ) ;
#106 = CARTESIAN_POINT ( 'NONE',  ( 0.0000000000000000000, 0.0000000000000000000, 0.0000000000000000000 ) ) ;
#107 = DATE_AND_TIME ( #101, #24 ) ;
#108 = DATE_TIME_ROLE ( 'creation_date' ) ;
#109 = APPROVAL_DATE_TIME ( #6, #22 ) ;
#110 = CLOSED_SHELL ( 'NONE', ( #46, #116, #30, #128 ) ) ;
#111 = ORIENTED_EDGE ( 'NONE', *, *, #121, .T. ) ;
#112 = DIRECTION ( 'NONE',  ( -3.491481338843133355E-15, 1.224646799147353207E-16, -1.000000000000000000 ) ) ;
#113 = DIRECTION ( 'NONE',  ( 4.275831445896958607E-31, 1.000000000000000000, 1.224646799147353207E-16 ) ) ;
#114 = EDGE_LOOP ( 'NONE', ( #64 ) ) ;
#115 = FACE_OUTER_BOUND ( 'NONE', #179, .T. ) ;
#116 = ADVANCED_FACE ( 'NONE', ( #194, #39 ), #131, .T. ) ;
#117 = VERTEX_POINT ( 'NONE', #120 ) ;
#118 = DIRECTION ( 'NONE',  ( 0.0000000000000000000, 1.000000000000000000, 0.0000000000000000000 ) ) ;
#119 = DIRECTION ( 'NONE',  ( 3.491481338843133355E-15, -1.224646799147353207E-16, 1.000000000000000000 ) ) ;
#120 = CARTESIAN_POINT ( 'NONE',  ( 6.982962677686206560E-16, -8.000000000000000000, 0.1999999999999982903 ) ) ;
#121 = EDGE_CURVE ( 'NONE', #14, #14, #129, .T. ) ;
#122 = PRODUCT_DEFINITION_SHAPE ( 'NONE', 'NONE',  #5 ) ;
#123 = DATE_AND_TIME ( #79, #42 ) ;
#124 = APPROVAL ( #180, 'UNSPECIFIED' ) ;
#125 = AXIS2_PLACEMENT_3D ( 'NONE', #102, #87, #59 ) ;
#126 = EDGE_LOOP ( 'NONE', ( #162 ) ) ;
#127 = FACE_OUTER_BOUND ( 'NONE', #200, .T. ) ;
#128 = ADVANCED_FACE ( 'NONE', ( #127 ), #51, .F. ) ;
#129 = CIRCLE ( 'NONE', #198, 8.000000000000000000 ) ;
#130 = APPROVAL_STATUS ( 'not_yet_approved' ) ;
#131 = CYLINDRICAL_SURFACE ( 'NONE', #141, 7.999999999999996447 ) ;
#132 =( NAMED_UNIT ( * ) SI_UNIT ( $, .STERADIAN. ) SOLID_ANGLE_UNIT ( ) );
#133 = AXIS2_PLACEMENT_3D ( 'NONE', #89, #219, #100 ) ;
#134 = APPROVAL_PERSON_ORGANIZATION ( #4, #22, #44 ) ;
#135 = FACE_OUTER_BOUND ( 'NONE', #32, .T. ) ;
#136 = CARTESIAN_POINT ( 'NONE',  ( 3.194705425041467083E-13, -1.120551821219828183E-14, 91.50000000000000000 ) ) ;
#137 = CALENDAR_DATE ( 2021, 16, 11 ) ;
#138 = DATE_AND_TIME ( #40, #55 ) ;
#139 = PRODUCT ( '49693', '49693', '', ( #174 ) ) ;
#140 = COORDINATED_UNIVERSAL_TIME_OFFSET ( 1, 0, .AHEAD. ) ;
#141 = AXIS2_PLACEMENT_3D ( 'NONE', #106, #153, #2 ) ;
#142 = ORIENTED_EDGE ( 'NONE', *, *, #121, .F. ) ;
#143 = EDGE_CURVE ( 'NONE', #90, #90, #34, .T. ) ;
#144 = PERSON_AND_ORGANIZATION ( #190, #166 ) ;
#145 = CC_DESIGN_DATE_AND_TIME_ASSIGNMENT ( #138, #108, ( #5 ) ) ;
#146 = DIRECTION ( 'NONE',  ( -3.491481338843133355E-15, 1.224646799147353207E-16, -1.000000000000000000 ) ) ;
#147 = CARTESIAN_POINT ( 'NONE',  ( 0.0000000000000000000, 0.0000000000000000000, 0.0000000000000000000 ) ) ;
#148 =( LENGTH_UNIT ( ) NAMED_UNIT ( * ) SI_UNIT ( .MILLI., .METRE. ) );
#149 = DIRECTION ( 'NONE',  ( -4.275831445896958607E-31, -1.000000000000000000, -1.224646799147353207E-16 ) ) ;
#150 = FACE_BOUND ( 'NONE', #36, .T. ) ;
#151 =( GEOMETRIC_REPRESENTATION_CONTEXT ( 3 ) GLOBAL_UNCERTAINTY_ASSIGNED_CONTEXT ( ( #61 ) ) GLOBAL_UNIT_ASSIGNED_CONTEXT ( ( #148, #56, #132 ) ) REPRESENTATION_CONTEXT ( 'NONE', 'WORKASPACE' ) );
#152 = PRODUCT_DEFINITION_FORMATION_WITH_SPECIFIED_SOURCE ( 'ANY', '', #139, .NOT_KNOWN. ) ;
#153 = DIRECTION ( 'NONE',  ( -3.491481338843133355E-15, 1.224646799147353207E-16, -1.000000000000000000 ) ) ;
#154 = PERSON_AND_ORGANIZATION_ROLE ( 'design_supplier' ) ;
#155 = APPROVAL_DATE_TIME ( #93, #124 ) ;
#156 = ADVANCED_FACE ( 'NONE', ( #52 ), #184, .F. ) ;
#157 = SECURITY_CLASSIFICATION_LEVEL ( 'unclassified' ) ;
#158 = AXIS2_PLACEMENT_3D ( 'NONE', #9, #27, #202 ) ;
#159 = SECURITY_CLASSIFICATION ( '', '', #157 ) ;
#160 = APPROVAL_STATUS ( 'not_yet_approved' ) ;
#161 = DESIGN_CONTEXT ( 'detailed design', #177, 'design' ) ;
#162 = ORIENTED_EDGE ( 'NONE', *, *, #143, .F. ) ;
#163 = AXIS2_PLACEMENT_3D ( 'NONE', #175, #218, #70 ) ;
#164 = CC_DESIGN_PERSON_AND_ORGANIZATION_ASSIGNMENT ( #212, #154, ( #152 ) ) ;
#165 = AXIS2_PLACEMENT_3D ( 'NONE', #72, #105, #75 ) ;
#166 = ORGANIZATION ( 'UNSPECIFIED', 'UNSPECIFIED', '' ) ;
#167 = VERTEX_POINT ( 'NONE', #71 ) ;
#168 = DIRECTION ( 'NONE',  ( 3.491481338843133355E-15, -1.226656096638776648E-16, 1.000000000000000000 ) ) ;
#169 = CARTESIAN_POINT ( 'NONE',  ( 3.194705425041467083E-13, 7.999999999999989342, 91.50000000000000000 ) ) ;
#170 = ORIENTED_EDGE ( 'NONE', *, *, #183, .T. ) ;
#171 = CONICAL_SURFACE ( 'NONE', #191, 8.000000000000000000, 0.7853981633974447263 ) ;
#172 = DIRECTION ( 'NONE',  ( -4.333342374871280669E-31, -1.000000000000000000, -1.219727444046192488E-16 ) ) ;
#173 = FACE_OUTER_BOUND ( 'NONE', #21, .T. ) ;
#174 = MECHANICAL_CONTEXT ( 'NONE', #211, 'mechanical' ) ;
#175 = CARTESIAN_POINT ( 'NONE',  ( 3.212162831735682182E-13, -1.126675055215564941E-14, 92.00000000000000000 ) ) ;
#176 = EDGE_CURVE ( 'NONE', #117, #117, #99, .T. ) ;
#177 = APPLICATION_CONTEXT ( 'configuration controlled 3d designs of mechanical parts and assemblies' ) ;
#178 = DATE_TIME_ROLE ( 'classification_date' ) ;
#179 = EDGE_LOOP ( 'NONE', ( #142 ) ) ;
#180 = APPROVAL_STATUS ( 'not_yet_approved' ) ;
#181 = LOCAL_TIME ( 16, 44, 55.00000000000000000, #140 ) ;
#182 = ORIENTED_EDGE ( 'NONE', *, *, #176, .F. ) ;
#183 = EDGE_CURVE ( 'NONE', #188, #188, #98, .T. ) ;
#184 = PLANE ( 'NONE',  #69 ) ;
#185 = DIRECTION ( 'NONE',  ( 3.491481338843133355E-15, -1.224646799147353207E-16, 1.000000000000000000 ) ) ;
#186 = EDGE_LOOP ( 'NONE', ( #80 ) ) ;
#187 = APPLICATION_PROTOCOL_DEFINITION ( 'international standard', 'config_control_design', 1994, #211 ) ;
#188 = VERTEX_POINT ( 'NONE', #221 ) ;
#189 = CARTESIAN_POINT ( 'NONE',  ( 1.117274028429802674E-13, 5.999039130647421673E-32, 32.00000000000000000 ) ) ;
#190 = PERSON ( 'UNSPECIFIED', 'UNSPECIFIED', 'UNSPECIFIED', ('UNSPECIFIED'), ('UNSPECIFIED'), ('UNSPECIFIED') ) ;
#191 = AXIS2_PLACEMENT_3D ( 'NONE', #220, #168, #222 ) ;
#192 = DIRECTION ( 'NONE',  ( 0.0000000000000000000, 0.0000000000000000000, 1.000000000000000000 ) ) ;
#193 = DIRECTION ( 'NONE',  ( -4.275831445896958607E-31, -1.000000000000000000, -1.224646799147353207E-16 ) ) ;
#194 = FACE_OUTER_BOUND ( 'NONE', #215, .T. ) ;
#195 = CC_DESIGN_DATE_AND_TIME_ASSIGNMENT ( #123, #178, ( #159 ) ) ;
#196 = CONICAL_SURFACE ( 'NONE', #96, 7.500000000000000888, 0.7853981633974473908 ) ;
#197 = PERSON_AND_ORGANIZATION ( #190, #166 ) ;
#198 = AXIS2_PLACEMENT_3D ( 'NONE', #136, #84, #214 ) ;
#199 = APPROVAL_PERSON_ORGANIZATION ( #20, #124, #43 ) ;
#200 = EDGE_LOOP ( 'NONE', ( #45 ) ) ;
#201 = ADVANCED_BREP_SHAPE_REPRESENTATION ( '49693', ( #92, #12, #82 ), #151 ) ;
#202 = DIRECTION ( 'NONE',  ( -4.282846870592447371E-31, -1.000000000000000000, -1.226656096638776648E-16 ) ) ;
#203 = CC_DESIGN_APPROVAL ( #22, ( #152 ) ) ;
#204 = APPROVAL_ROLE ( '' ) ;
#205 = FACE_OUTER_BOUND ( 'NONE', #73, .T. ) ;
#206 = CYLINDRICAL_SURFACE ( 'NONE', #88, 7.999999999999991118 ) ;
#207 = CC_DESIGN_PERSON_AND_ORGANIZATION_ASSIGNMENT ( #19, #47, ( #152 ) ) ;
#208 = CARTESIAN_POINT ( 'NONE',  ( 3.212162831735682182E-13, 7.499999999999989342, 92.00000000000000000 ) ) ;
#209 = ORIENTED_EDGE ( 'NONE', *, *, #49, .T. ) ;
#210 = SHAPE_DEFINITION_REPRESENTATION ( #122, #201 ) ;
#211 = APPLICATION_CONTEXT ( 'configuration controlled 3d designs of mechanical parts and assemblies' ) ;
#212 = PERSON_AND_ORGANIZATION ( #190, #166 ) ;
#213 = CALENDAR_DATE ( 2021, 16, 11 ) ;
#214 = DIRECTION ( 'NONE',  ( 0.0000000000000000000, 1.000000000000000000, 0.0000000000000000000 ) ) ;
#215 = EDGE_LOOP ( 'NONE', ( #95 ) ) ;
#216 = APPROVAL ( #130, 'UNSPECIFIED' ) ;
#217 = APPLICATION_PROTOCOL_DEFINITION ( 'international standard', 'config_control_design', 1994, #177 ) ;
#218 = DIRECTION ( 'NONE',  ( -3.491481338843133355E-15, 1.224646799147353207E-16, -1.000000000000000000 ) ) ;
#219 = DIRECTION ( 'NONE',  ( 3.491481338843133355E-15, -1.224646799147353207E-16, 1.000000000000000000 ) ) ;
#220 = CARTESIAN_POINT ( 'NONE',  ( 6.982962677686241073E-16, -2.453312193277547009E-17, 0.1999999999999992895 ) ) ;
#221 = CARTESIAN_POINT ( 'NONE',  ( 1.117274028429802674E-13, 7.999999999999989342, 32.00000000000000000 ) ) ;
#222 = DIRECTION ( 'NONE',  ( -4.333342374871280669E-31, -1.000000000000000000, -1.219727444046192488E-16 ) ) ;
#223 = AXIS2_PLACEMENT_3D ( 'NONE', #16, #35, #172 ) ;
ENDSEC;
END-ISO-10303-21;
