ISO-10303-21;
HEADER;
FILE_DESCRIPTION (( 'STEP AP203' ),
    '1' );
FILE_NAME ('49691.step',
    '2021-11-16T15:44:55',
    ( '' ),
    ( '' ),
    'SwSTEP 2.0',
    'SolidWorks 2019',
    '' );
FILE_SCHEMA (( 'CONFIG_CONTROL_DESIGN' ));
ENDSEC;

DATA;
#1 = ORIENTED_EDGE ( 'NONE', *, *, #93, .T. ) ;
#2 = CALENDAR_DATE ( 2021, 16, 11 ) ;
#3 = DIRECTION ( 'NONE',  ( 3.491481338843133355E-15, -1.226656096638776648E-16, 1.000000000000000000 ) ) ;
#4 = APPROVAL_DATE_TIME ( #181, #81 ) ;
#5 = CC_DESIGN_PERSON_AND_ORGANIZATION_ASSIGNMENT ( #216, #155, ( #205 ) ) ;
#6 = DIRECTION ( 'NONE',  ( 3.491481338843133355E-15, -1.224646799147353207E-16, 1.000000000000000000 ) ) ;
#7 = CALENDAR_DATE ( 2021, 16, 11 ) ;
#8 = CYLINDRICAL_SURFACE ( 'NONE', #102, 5.999999999999998224 ) ;
#9 = DIRECTION ( 'NONE',  ( 3.491481338843133355E-15, -1.224646799147353207E-16, 1.000000000000000000 ) ) ;
#10 = CARTESIAN_POINT ( 'NONE',  ( 6.982962677686220365E-16, -6.000000000000000000, 0.1999999999999986788 ) ) ;
#11 = MANIFOLD_SOLID_BREP ( 'Corps-Déplacer/Copier1[1]', #39 ) ;
#12 = DIRECTION ( 'NONE',  ( 3.491481338843133355E-15, -1.226656096638776648E-16, 1.000000000000000000 ) ) ;
#13 = MANIFOLD_SOLID_BREP ( 'Corps-Déplacer/Copier1[2]', #169 ) ;
#14 = CC_DESIGN_DATE_AND_TIME_ASSIGNMENT ( #107, #103, ( #212 ) ) ;
#15 =( NAMED_UNIT ( * ) SI_UNIT ( $, .STERADIAN. ) SOLID_ANGLE_UNIT ( ) );
#16 = CIRCLE ( 'NONE', #184, 6.000000000000000000 ) ;
#17 = EDGE_LOOP ( 'NONE', ( #131 ) ) ;
#18 = EDGE_LOOP ( 'NONE', ( #151 ) ) ;
#19 = SECURITY_CLASSIFICATION_LEVEL ( 'unclassified' ) ;
#20 =( GEOMETRIC_REPRESENTATION_CONTEXT ( 3 ) GLOBAL_UNCERTAINTY_ASSIGNED_CONTEXT ( ( #74 ) ) GLOBAL_UNIT_ASSIGNED_CONTEXT ( ( #42, #44, #15 ) ) REPRESENTATION_CONTEXT ( 'NONE', 'WORKASPACE' ) );
#21 = DIRECTION ( 'NONE',  ( 4.275831445896958607E-31, 1.000000000000000000, 1.224646799147353207E-16 ) ) ;
#22 = PERSON_AND_ORGANIZATION ( #147, #66 ) ;
#23 = CARTESIAN_POINT ( 'NONE',  ( 6.982962677686246003E-16, -2.453312193277548858E-17, 0.1999999999999994005 ) ) ;
#24 = CYLINDRICAL_SURFACE ( 'NONE', #47, 5.999999999999992895 ) ;
#25 = LOCAL_TIME ( 16, 44, 55.00000000000000000, #209 ) ;
#26 = ADVANCED_FACE ( 'NONE', ( #191, #115 ), #84, .T. ) ;
#27 = PLANE ( 'NONE',  #88 ) ;
#28 = VERTEX_POINT ( 'NONE', #98 ) ;
#29 = ADVANCED_FACE ( 'NONE', ( #94 ), #63, .F. ) ;
#30 = CONICAL_SURFACE ( 'NONE', #159, 5.500000000000001776, 0.7853981633974482790 ) ;
#31 = VERTEX_POINT ( 'NONE', #10 ) ;
#32 = DATE_TIME_ROLE ( 'classification_date' ) ;
#33 = CARTESIAN_POINT ( 'NONE',  ( -1.068961779941895936E-30, 3.749413200789030543E-32, -3.061628220805801239E-16 ) ) ;
#34 = PERSON_AND_ORGANIZATION ( #147, #66 ) ;
#35 = CARTESIAN_POINT ( 'NONE',  ( 2.880472104545584703E-13, 5.999999999999991118, 82.50000000000000000 ) ) ;
#36 = DIRECTION ( 'NONE',  ( 4.275831445896958607E-31, 1.000000000000000000, 1.224646799147353207E-16 ) ) ;
#37 = ADVANCED_BREP_SHAPE_REPRESENTATION ( '49691', ( #11, #13, #171 ), #20 ) ;
#38 = CARTESIAN_POINT ( 'NONE',  ( 9.077851480992146724E-14, 4.499279347985564065E-32, 26.00000000000000000 ) ) ;
#39 = CLOSED_SHELL ( 'NONE', ( #203, #175, #190, #29 ) ) ;
#40 = CARTESIAN_POINT ( 'NONE',  ( 9.077851480992146724E-14, 5.999999999999991118, 26.00000000000000000 ) ) ;
#41 = DIRECTION ( 'NONE',  ( -3.491481338843133355E-15, 1.224646799147353207E-16, -1.000000000000000000 ) ) ;
#42 =( LENGTH_UNIT ( ) NAMED_UNIT ( * ) SI_UNIT ( .MILLI., .METRE. ) );
#43 = CC_DESIGN_DATE_AND_TIME_ASSIGNMENT ( #192, #32, ( #205 ) ) ;
#44 =( NAMED_UNIT ( * ) PLANE_ANGLE_UNIT ( ) SI_UNIT ( $, .RADIAN. ) );
#45 = APPLICATION_PROTOCOL_DEFINITION ( 'international standard', 'config_control_design', 1994, #91 ) ;
#46 = APPROVAL ( #72, 'UNSPECIFIED' ) ;
#47 = AXIS2_PLACEMENT_3D ( 'NONE', #90, #217, #80 ) ;
#48 = EDGE_LOOP ( 'NONE', ( #170 ) ) ;
#49 = CC_DESIGN_PERSON_AND_ORGANIZATION_ASSIGNMENT ( #174, #54, ( #212 ) ) ;
#50 = EDGE_LOOP ( 'NONE', ( #148 ) ) ;
#51 = APPROVAL_PERSON_ORGANIZATION ( #141, #81, #126 ) ;
#52 = ORIENTED_EDGE ( 'NONE', *, *, #121, .T. ) ;
#53 = EDGE_LOOP ( 'NONE', ( #69 ) ) ;
#54 = PERSON_AND_ORGANIZATION_ROLE ( 'creator' ) ;
#55 = CARTESIAN_POINT ( 'NONE',  ( 2.897929511239800811E-13, -1.016456843292303150E-14, 83.00000000000000000 ) ) ;
#56 = DATE_AND_TIME ( #2, #25 ) ;
#57 = AXIS2_PLACEMENT_3D ( 'NONE', #55, #198, #158 ) ;
#58 = LOCAL_TIME ( 16, 44, 55.00000000000000000, #124 ) ;
#59 = VERTEX_POINT ( 'NONE', #35 ) ;
#60 = APPROVAL_ROLE ( '' ) ;
#61 = DIRECTION ( 'NONE',  ( -3.491481338843133355E-15, 1.224646799147353207E-16, -1.000000000000000000 ) ) ;
#62 = APPLICATION_PROTOCOL_DEFINITION ( 'international standard', 'config_control_design', 1994, #168 ) ;
#63 = PLANE ( 'NONE',  #214 ) ;
#64 = PLANE ( 'NONE',  #65 ) ;
#65 = AXIS2_PLACEMENT_3D ( 'NONE', #38, #73, #129 ) ;
#66 = ORGANIZATION ( 'UNSPECIFIED', 'UNSPECIFIED', '' ) ;
#67 = ADVANCED_FACE ( 'NONE', ( #138 ), #106, .T. ) ;
#68 = EDGE_LOOP ( 'NONE', ( #104 ) ) ;
#69 = ORIENTED_EDGE ( 'NONE', *, *, #130, .F. ) ;
#70 = SHAPE_DEFINITION_REPRESENTATION ( #116, #37 ) ;
#71 = VERTEX_POINT ( 'NONE', #204 ) ;
#72 = APPROVAL_STATUS ( 'not_yet_approved' ) ;
#73 = DIRECTION ( 'NONE',  ( 3.491481338843133355E-15, -1.224646799147353207E-16, 1.000000000000000000 ) ) ;
#74 = UNCERTAINTY_MEASURE_WITH_UNIT (LENGTH_MEASURE( 1.000000000000000082E-05 ), #42, 'distance_accuracy_value', 'NONE');
#75 = PERSON_AND_ORGANIZATION ( #147, #66 ) ;
#76 = CC_DESIGN_SECURITY_CLASSIFICATION ( #205, ( #152 ) ) ;
#77 = FACE_OUTER_BOUND ( 'NONE', #17, .T. ) ;
#78 = COORDINATED_UNIVERSAL_TIME_OFFSET ( 1, 0, .AHEAD. ) ;
#79 = CARTESIAN_POINT ( 'NONE',  ( 9.077851480992146724E-14, -3.184081677783118191E-15, 26.00000000000000000 ) ) ;
#80 = DIRECTION ( 'NONE',  ( 4.275831445896958607E-31, 1.000000000000000000, 1.224646799147353207E-16 ) ) ;
#81 = APPROVAL ( #218, 'UNSPECIFIED' ) ;
#82 = CIRCLE ( 'NONE', #202, 5.999999999999994671 ) ;
#83 = APPROVAL ( #95, 'UNSPECIFIED' ) ;
#84 = CONICAL_SURFACE ( 'NONE', #99, 6.000000000000000000, 0.7853981633974449483 ) ;
#85 = ORIENTED_EDGE ( 'NONE', *, *, #182, .F. ) ;
#86 = EDGE_LOOP ( 'NONE', ( #85 ) ) ;
#87 = COORDINATED_UNIVERSAL_TIME_OFFSET ( 1, 0, .AHEAD. ) ;
#88 = AXIS2_PLACEMENT_3D ( 'NONE', #33, #9, #164 ) ;
#89 = EDGE_LOOP ( 'NONE', ( #207 ) ) ;
#90 = CARTESIAN_POINT ( 'NONE',  ( 0.0000000000000000000, 0.0000000000000000000, 0.0000000000000000000 ) ) ;
#91 = APPLICATION_CONTEXT ( 'configuration controlled 3d designs of mechanical parts and assemblies' ) ;
#92 = PERSON_AND_ORGANIZATION_ROLE ( 'design_supplier' ) ;
#93 = EDGE_CURVE ( 'NONE', #213, #213, #165, .T. ) ;
#94 = FACE_OUTER_BOUND ( 'NONE', #53, .T. ) ;
#95 = APPROVAL_STATUS ( 'not_yet_approved' ) ;
#96 = DIRECTION ( 'NONE',  ( 0.0000000000000000000, 1.000000000000000000, 0.0000000000000000000 ) ) ;
#97 = DIRECTION ( 'NONE',  ( -4.282846870592448247E-31, -1.000000000000000000, -1.226656096638776648E-16 ) ) ;
#98 = CARTESIAN_POINT ( 'NONE',  ( 2.897929511239800811E-13, 5.499999999999991118, 83.00000000000000000 ) ) ;
#99 = AXIS2_PLACEMENT_3D ( 'NONE', #173, #3, #135 ) ;
#100 = CARTESIAN_POINT ( 'NONE',  ( 0.0000000000000000000, 0.0000000000000000000, 0.0000000000000000000 ) ) ;
#101 = APPROVAL_PERSON_ORGANIZATION ( #75, #83, #60 ) ;
#102 = AXIS2_PLACEMENT_3D ( 'NONE', #221, #142, #21 ) ;
#103 = DATE_TIME_ROLE ( 'creation_date' ) ;
#104 = ORIENTED_EDGE ( 'NONE', *, *, #167, .F. ) ;
#105 = MECHANICAL_CONTEXT ( 'NONE', #91, 'mechanical' ) ;
#106 = PLANE ( 'NONE',  #200 ) ;
#107 = DATE_AND_TIME ( #7, #161 ) ;
#108 = FACE_OUTER_BOUND ( 'NONE', #18, .T. ) ;
#109 = APPROVAL_DATE_TIME ( #179, #83 ) ;
#110 = DIRECTION ( 'NONE',  ( -3.491481338843133355E-15, 1.224646799147353207E-16, -1.000000000000000000 ) ) ;
#111 = CC_DESIGN_APPROVAL ( #81, ( #205 ) ) ;
#112 = CARTESIAN_POINT ( 'NONE',  ( -2.484051184943620158E-30, 6.067287630905563479E-32, -7.114605360504905986E-16 ) ) ;
#113 = FACE_OUTER_BOUND ( 'NONE', #210, .T. ) ;
#114 = CIRCLE ( 'NONE', #133, 5.999999999999994671 ) ;
#115 = FACE_OUTER_BOUND ( 'NONE', #68, .T. ) ;
#116 = PRODUCT_DEFINITION_SHAPE ( 'NONE', 'NONE',  #212 ) ;
#117 = EDGE_LOOP ( 'NONE', ( #1 ) ) ;
#118 = CC_DESIGN_PERSON_AND_ORGANIZATION_ASSIGNMENT ( #22, #92, ( #152 ) ) ;
#119 = ORIENTED_EDGE ( 'NONE', *, *, #121, .F. ) ;
#120 = DESIGN_CONTEXT ( 'detailed design', #168, 'design' ) ;
#121 = EDGE_CURVE ( 'NONE', #59, #59, #189, .T. ) ;
#122 = FACE_OUTER_BOUND ( 'NONE', #132, .T. ) ;
#123 = CIRCLE ( 'NONE', #57, 5.500000000000001776 ) ;
#124 = COORDINATED_UNIVERSAL_TIME_OFFSET ( 1, 0, .AHEAD. ) ;
#125 = DIRECTION ( 'NONE',  ( 0.0000000000000000000, 1.000000000000000000, 0.0000000000000000000 ) ) ;
#126 = APPROVAL_ROLE ( '' ) ;
#127 = CARTESIAN_POINT ( 'NONE',  ( 2.897929511239800811E-13, 4.124339402320094190E-32, 83.00000000000000000 ) ) ;
#128 = FACE_BOUND ( 'NONE', #48, .T. ) ;
#129 = DIRECTION ( 'NONE',  ( -4.275831445896958607E-31, -1.000000000000000000, -1.224646799147353207E-16 ) ) ;
#130 = EDGE_CURVE ( 'NONE', #28, #28, #123, .T. ) ;
#131 = ORIENTED_EDGE ( 'NONE', *, *, #182, .T. ) ;
#132 = EDGE_LOOP ( 'NONE', ( #52 ) ) ;
#133 = AXIS2_PLACEMENT_3D ( 'NONE', #79, #183, #178 ) ;
#134 = PERSON_AND_ORGANIZATION_ROLE ( 'design_owner' ) ;
#135 = DIRECTION ( 'NONE',  ( -4.333342374871280669E-31, -1.000000000000000000, -1.219727444046192488E-16 ) ) ;
#136 = CALENDAR_DATE ( 2021, 16, 11 ) ;
#137 = CALENDAR_DATE ( 2021, 16, 11 ) ;
#138 = FACE_OUTER_BOUND ( 'NONE', #86, .T. ) ;
#139 = DIRECTION ( 'NONE',  ( 1.000000000000000000, 0.0000000000000000000, 0.0000000000000000000 ) ) ;
#140 = FACE_OUTER_BOUND ( 'NONE', #154, .T. ) ;
#141 = PERSON_AND_ORGANIZATION ( #147, #66 ) ;
#142 = DIRECTION ( 'NONE',  ( -3.491481338843133355E-15, 1.224646799147353207E-16, -1.000000000000000000 ) ) ;
#143 = EDGE_CURVE ( 'NONE', #71, #71, #114, .T. ) ;
#144 = CARTESIAN_POINT ( 'NONE',  ( 2.880472104545584703E-13, -1.010333609296566392E-14, 82.50000000000000000 ) ) ;
#145 = ADVANCED_FACE ( 'NONE', ( #156 ), #27, .F. ) ;
#146 = CC_DESIGN_APPROVAL ( #46, ( #152 ) ) ;
#147 = PERSON ( 'UNSPECIFIED', 'UNSPECIFIED', 'UNSPECIFIED', ('UNSPECIFIED'), ('UNSPECIFIED'), ('UNSPECIFIED') ) ;
#148 = ORIENTED_EDGE ( 'NONE', *, *, #143, .T. ) ;
#149 = CC_DESIGN_PERSON_AND_ORGANIZATION_ASSIGNMENT ( #197, #160, ( #152 ) ) ;
#150 = PRODUCT ( '49691', '49691', '', ( #105 ) ) ;
#151 = ORIENTED_EDGE ( 'NONE', *, *, #143, .F. ) ;
#152 = PRODUCT_DEFINITION_FORMATION_WITH_SPECIFIED_SOURCE ( 'ANY', '', #150, .NOT_KNOWN. ) ;
#153 = APPROVAL_DATE_TIME ( #56, #46 ) ;
#154 = EDGE_LOOP ( 'NONE', ( #206 ) ) ;
#155 = PERSON_AND_ORGANIZATION_ROLE ( 'classification_officer' ) ;
#156 = FACE_OUTER_BOUND ( 'NONE', #89, .T. ) ;
#157 = CALENDAR_DATE ( 2021, 16, 11 ) ;
#158 = DIRECTION ( 'NONE',  ( 0.0000000000000000000, 1.000000000000000000, 0.0000000000000000000 ) ) ;
#159 = AXIS2_PLACEMENT_3D ( 'NONE', #163, #61, #96 ) ;
#160 = PERSON_AND_ORGANIZATION_ROLE ( 'creator' ) ;
#161 = LOCAL_TIME ( 16, 44, 55.00000000000000000, #177 ) ;
#162 = CC_DESIGN_PERSON_AND_ORGANIZATION_ASSIGNMENT ( #34, #134, ( #150 ) ) ;
#163 = CARTESIAN_POINT ( 'NONE',  ( 2.897929511239800811E-13, -1.016456843292303150E-14, 83.00000000000000000 ) ) ;
#164 = DIRECTION ( 'NONE',  ( -4.275831445896958607E-31, -1.000000000000000000, -1.224646799147353207E-16 ) ) ;
#165 = CIRCLE ( 'NONE', #194, 5.800000000000001599 ) ;
#166 = DIRECTION ( 'NONE',  ( 0.0000000000000000000, 0.0000000000000000000, 1.000000000000000000 ) ) ;
#167 = EDGE_CURVE ( 'NONE', #31, #31, #16, .T. ) ;
#168 = APPLICATION_CONTEXT ( 'configuration controlled 3d designs of mechanical parts and assemblies' ) ;
#169 = CLOSED_SHELL ( 'NONE', ( #188, #67, #26, #145 ) ) ;
#170 = ORIENTED_EDGE ( 'NONE', *, *, #130, .T. ) ;
#171 = AXIS2_PLACEMENT_3D ( 'NONE', #100, #166, #139 ) ;
#172 = APPROVAL_ROLE ( '' ) ;
#173 = CARTESIAN_POINT ( 'NONE',  ( 6.982962677686246003E-16, -2.453312193277548858E-17, 0.1999999999999994005 ) ) ;
#174 = PERSON_AND_ORGANIZATION ( #147, #66 ) ;
#175 = ADVANCED_FACE ( 'NONE', ( #108, #122 ), #8, .T. ) ;
#176 = APPROVAL_PERSON_ORGANIZATION ( #195, #46, #172 ) ;
#177 = COORDINATED_UNIVERSAL_TIME_OFFSET ( 1, 0, .AHEAD. ) ;
#178 = DIRECTION ( 'NONE',  ( 0.0000000000000000000, 1.000000000000000000, 0.0000000000000000000 ) ) ;
#179 = DATE_AND_TIME ( #137, #58 ) ;
#180 = DIRECTION ( 'NONE',  ( -3.491481338843133355E-15, 1.224646799147353207E-16, -1.000000000000000000 ) ) ;
#181 = DATE_AND_TIME ( #157, #222 ) ;
#182 = EDGE_CURVE ( 'NONE', #220, #220, #82, .T. ) ;
#183 = DIRECTION ( 'NONE',  ( -3.491481338843133355E-15, 1.224646799147353207E-16, -1.000000000000000000 ) ) ;
#184 = AXIS2_PLACEMENT_3D ( 'NONE', #23, #12, #193 ) ;
#185 = CARTESIAN_POINT ( 'NONE',  ( 9.077851480992146724E-14, 4.499279347985564065E-32, 26.00000000000000000 ) ) ;
#186 = CARTESIAN_POINT ( 'NONE',  ( -4.968102369887241017E-30, -5.800000000000001599, -1.422921072100981197E-15 ) ) ;
#187 = LOCAL_TIME ( 16, 44, 55.00000000000000000, #78 ) ;
#188 = ADVANCED_FACE ( 'NONE', ( #77, #140 ), #24, .T. ) ;
#189 = CIRCLE ( 'NONE', #223, 6.000000000000001776 ) ;
#190 = ADVANCED_FACE ( 'NONE', ( #113, #128 ), #30, .T. ) ;
#191 = FACE_BOUND ( 'NONE', #117, .T. ) ;
#192 = DATE_AND_TIME ( #136, #187 ) ;
#193 = DIRECTION ( 'NONE',  ( -4.333342374871280669E-31, -1.000000000000000000, -1.219727444046192488E-16 ) ) ;
#194 = AXIS2_PLACEMENT_3D ( 'NONE', #112, #201, #97 ) ;
#195 = PERSON_AND_ORGANIZATION ( #147, #66 ) ;
#196 = DIRECTION ( 'NONE',  ( -4.275831445896958607E-31, -1.000000000000000000, -1.224646799147353207E-16 ) ) ;
#197 = PERSON_AND_ORGANIZATION ( #147, #66 ) ;
#198 = DIRECTION ( 'NONE',  ( -3.491481338843133355E-15, 1.224646799147353207E-16, -1.000000000000000000 ) ) ;
#199 = FACE_OUTER_BOUND ( 'NONE', #50, .T. ) ;
#200 = AXIS2_PLACEMENT_3D ( 'NONE', #185, #6, #196 ) ;
#201 = DIRECTION ( 'NONE',  ( 3.491481338843133355E-15, -1.226656096638776648E-16, 1.000000000000000000 ) ) ;
#202 = AXIS2_PLACEMENT_3D ( 'NONE', #219, #41, #125 ) ;
#203 = ADVANCED_FACE ( 'NONE', ( #199 ), #64, .F. ) ;
#204 = CARTESIAN_POINT ( 'NONE',  ( 9.077851480992146724E-14, 5.999999999999991118, 26.00000000000000000 ) ) ;
#205 = SECURITY_CLASSIFICATION ( '', '', #19 ) ;
#206 = ORIENTED_EDGE ( 'NONE', *, *, #167, .T. ) ;
#207 = ORIENTED_EDGE ( 'NONE', *, *, #93, .F. ) ;
#208 = PRODUCT_RELATED_PRODUCT_CATEGORY ( 'detail', '', ( #150 ) ) ;
#209 = COORDINATED_UNIVERSAL_TIME_OFFSET ( 1, 0, .AHEAD. ) ;
#210 = EDGE_LOOP ( 'NONE', ( #119 ) ) ;
#211 = DIRECTION ( 'NONE',  ( 0.0000000000000000000, 1.000000000000000000, 0.0000000000000000000 ) ) ;
#212 = PRODUCT_DEFINITION ( 'UNKNOWN', '', #152, #120 ) ;
#213 = VERTEX_POINT ( 'NONE', #186 ) ;
#214 = AXIS2_PLACEMENT_3D ( 'NONE', #127, #180, #36 ) ;
#215 = CC_DESIGN_APPROVAL ( #83, ( #212 ) ) ;
#216 = PERSON_AND_ORGANIZATION ( #147, #66 ) ;
#217 = DIRECTION ( 'NONE',  ( -3.491481338843133355E-15, 1.224646799147353207E-16, -1.000000000000000000 ) ) ;
#218 = APPROVAL_STATUS ( 'not_yet_approved' ) ;
#219 = CARTESIAN_POINT ( 'NONE',  ( 9.077851480992146724E-14, -3.184081677783118191E-15, 26.00000000000000000 ) ) ;
#220 = VERTEX_POINT ( 'NONE', #40 ) ;
#221 = CARTESIAN_POINT ( 'NONE',  ( 0.0000000000000000000, 0.0000000000000000000, 0.0000000000000000000 ) ) ;
#222 = LOCAL_TIME ( 16, 44, 55.00000000000000000, #87 ) ;
#223 = AXIS2_PLACEMENT_3D ( 'NONE', #144, #110, #211 ) ;
ENDSEC;
END-ISO-10303-21;
