ISO-10303-21;
HEADER;
FILE_DESCRIPTION (( 'STEP AP203' ),
    '1' );
FILE_NAME ('49690.step',
    '2021-11-16T15:44:54',
    ( '' ),
    ( '' ),
    'SwSTEP 2.0',
    'SolidWorks 2019',
    '' );
FILE_SCHEMA (( 'CONFIG_CONTROL_DESIGN' ));
ENDSEC;

DATA;
#1 = PERSON_AND_ORGANIZATION_ROLE ( 'design_owner' ) ;
#2 = APPLICATION_PROTOCOL_DEFINITION ( 'international standard', 'config_control_design', 1994, #190 ) ;
#3 = PERSON_AND_ORGANIZATION_ROLE ( 'creator' ) ;
#4 = AXIS2_PLACEMENT_3D ( 'NONE', #13, #39, #133 ) ;
#5 = ORGANIZATION ( 'UNSPECIFIED', 'UNSPECIFIED', '' ) ;
#6 = PERSON_AND_ORGANIZATION ( #64, #5 ) ;
#7 = ORIENTED_EDGE ( 'NONE', *, *, #141, .T. ) ;
#8 = COORDINATED_UNIVERSAL_TIME_OFFSET ( 1, 0, .AHEAD. ) ;
#9 = CC_DESIGN_DATE_AND_TIME_ASSIGNMENT ( #18, #86, ( #210 ) ) ;
#10 = ORIENTED_EDGE ( 'NONE', *, *, #93, .T. ) ;
#11 = CARTESIAN_POINT ( 'NONE',  ( 7.681258945454893382E-14, -2.694222958124176809E-15, 22.00000000000000000 ) ) ;
#12 = CC_DESIGN_DATE_AND_TIME_ASSIGNMENT ( #116, #85, ( #219 ) ) ;
#13 = CARTESIAN_POINT ( 'NONE',  ( -9.620640345606431281E-31, 3.374466383056370416E-32, -2.755460909550251608E-16 ) ) ;
#14 = CARTESIAN_POINT ( 'NONE',  ( 2.513866563967056016E-13, -8.817456953860941711E-15, 72.00000000000000000 ) ) ;
#15 = DIRECTION ( 'NONE',  ( 0.0000000000000000000, 1.000000000000000000, 0.0000000000000000000 ) ) ;
#16 = FACE_OUTER_BOUND ( 'NONE', #161, .T. ) ;
#17 = CARTESIAN_POINT ( 'NONE',  ( 6.982962677686226281E-16, -5.000000000000000000, 0.1999999999999988176 ) ) ;
#18 = DATE_AND_TIME ( #160, #163 ) ;
#19 = ORIENTED_EDGE ( 'NONE', *, *, #141, .F. ) ;
#20 = SECURITY_CLASSIFICATION_LEVEL ( 'unclassified' ) ;
#21 = PRODUCT ( '49690', '49690', '', ( #103 ) ) ;
#22 = ORIENTED_EDGE ( 'NONE', *, *, #203, .T. ) ;
#23 = FACE_BOUND ( 'NONE', #180, .T. ) ;
#24 = CC_DESIGN_PERSON_AND_ORGANIZATION_ASSIGNMENT ( #50, #1, ( #21 ) ) ;
#25 = DIRECTION ( 'NONE',  ( -3.491481338843133355E-15, 1.224646799147353207E-16, -1.000000000000000000 ) ) ;
#26 = CARTESIAN_POINT ( 'NONE',  ( 2.513866563967056016E-13, 4.499999999999992006, 72.00000000000000000 ) ) ;
#27 = EDGE_CURVE ( 'NONE', #198, #198, #143, .T. ) ;
#28 = APPLICATION_CONTEXT ( 'configuration controlled 3d designs of mechanical parts and assemblies' ) ;
#29 = PRODUCT_DEFINITION_SHAPE ( 'NONE', 'NONE',  #210 ) ;
#30 = CARTESIAN_POINT ( 'NONE',  ( 0.0000000000000000000, 0.0000000000000000000, 0.0000000000000000000 ) ) ;
#31 = CONICAL_SURFACE ( 'NONE', #135, 4.500000000000000888, 0.7853981633974344012 ) ;
#32 = CC_DESIGN_APPROVAL ( #150, ( #219 ) ) ;
#33 = DIRECTION ( 'NONE',  ( 0.0000000000000000000, 1.000000000000000000, 0.0000000000000000000 ) ) ;
#34 = DATE_AND_TIME ( #189, #41 ) ;
#35 = EDGE_LOOP ( 'NONE', ( #19 ) ) ;
#36 = APPROVAL_ROLE ( '' ) ;
#37 = ORIENTED_EDGE ( 'NONE', *, *, #27, .T. ) ;
#38 = CARTESIAN_POINT ( 'NONE',  ( 0.0000000000000000000, 0.0000000000000000000, 0.0000000000000000000 ) ) ;
#39 = DIRECTION ( 'NONE',  ( 3.491481338843133355E-15, -1.224646799147353207E-16, 1.000000000000000000 ) ) ;
#40 = CIRCLE ( 'NONE', #132, 5.000000000000000888 ) ;
#41 = LOCAL_TIME ( 16, 44, 54.00000000000000000, #8 ) ;
#42 = CYLINDRICAL_SURFACE ( 'NONE', #170, 4.999999999999993783 ) ;
#43 = DIRECTION ( 'NONE',  ( 3.491481338843133355E-15, -1.224646799147353207E-16, 1.000000000000000000 ) ) ;
#44 = APPROVAL ( #176, 'UNSPECIFIED' ) ;
#45 = AXIS2_PLACEMENT_3D ( 'NONE', #121, #194, #113 ) ;
#46 = CYLINDRICAL_SURFACE ( 'NONE', #124, 4.999999999999997335 ) ;
#47 = CC_DESIGN_PERSON_AND_ORGANIZATION_ASSIGNMENT ( #209, #52, ( #219 ) ) ;
#48 = FACE_OUTER_BOUND ( 'NONE', #139, .T. ) ;
#49 = CALENDAR_DATE ( 2021, 16, 11 ) ;
#50 = PERSON_AND_ORGANIZATION ( #64, #5 ) ;
#51 = APPLICATION_PROTOCOL_DEFINITION ( 'international standard', 'config_control_design', 1994, #28 ) ;
#52 = PERSON_AND_ORGANIZATION_ROLE ( 'classification_officer' ) ;
#53 = DIRECTION ( 'NONE',  ( -4.282846870592447371E-31, -1.000000000000000000, -1.226656096638776401E-16 ) ) ;
#54 = DIRECTION ( 'NONE',  ( 3.491481338843133355E-15, -1.226656096638776648E-16, 1.000000000000000000 ) ) ;
#55 = PERSON_AND_ORGANIZATION ( #64, #5 ) ;
#56 = ORIENTED_EDGE ( 'NONE', *, *, #131, .F. ) ;
#57 = FACE_OUTER_BOUND ( 'NONE', #94, .T. ) ;
#58 = APPROVAL_DATE_TIME ( #215, #150 ) ;
#59 = CARTESIAN_POINT ( 'NONE',  ( 2.496409157272839907E-13, 4.999999999999992006, 71.49999999999998579 ) ) ;
#60 = ADVANCED_BREP_SHAPE_REPRESENTATION ( '49690', ( #67, #216, #147 ), #114 ) ;
#61 = CIRCLE ( 'NONE', #187, 4.999999999999994671 ) ;
#62 = CARTESIAN_POINT ( 'NONE',  ( 0.0000000000000000000, 0.0000000000000000000, 0.0000000000000000000 ) ) ;
#63 = DESIGN_CONTEXT ( 'detailed design', #190, 'design' ) ;
#64 = PERSON ( 'UNSPECIFIED', 'UNSPECIFIED', 'UNSPECIFIED', ('UNSPECIFIED'), ('UNSPECIFIED'), ('UNSPECIFIED') ) ;
#65 = CC_DESIGN_APPROVAL ( #111, ( #95 ) ) ;
#66 = DIRECTION ( 'NONE',  ( 3.491481338843133355E-15, -1.224646799147353207E-16, 1.000000000000000000 ) ) ;
#67 = MANIFOLD_SOLID_BREP ( 'Corps-Déplacer/Copier1[1]', #73 ) ;
#68 = DIRECTION ( 'NONE',  ( -3.491481338843133355E-15, 1.224646799147353207E-16, -1.000000000000000000 ) ) ;
#69 = DIRECTION ( 'NONE',  ( 4.275831445896959482E-31, 1.000000000000000000, 1.224646799147353207E-16 ) ) ;
#70 = ADVANCED_FACE ( 'NONE', ( #57 ), #105, .F. ) ;
#71 = APPROVAL_ROLE ( '' ) ;
#72 = PERSON_AND_ORGANIZATION ( #64, #5 ) ;
#73 = CLOSED_SHELL ( 'NONE', ( #164, #214, #192, #70 ) ) ;
#74 = EDGE_LOOP ( 'NONE', ( #156 ) ) ;
#75 = AXIS2_PLACEMENT_3D ( 'NONE', #211, #54, #53 ) ;
#76 = EDGE_LOOP ( 'NONE', ( #212 ) ) ;
#77 = DIRECTION ( 'NONE',  ( -3.491481338843133355E-15, 1.224646799147353207E-16, -1.000000000000000000 ) ) ;
#78 = CARTESIAN_POINT ( 'NONE',  ( 6.982962677686246989E-16, -2.453312193277549166E-17, 0.1999999999999994282 ) ) ;
#79 = AXIS2_PLACEMENT_3D ( 'NONE', #102, #43, #169 ) ;
#80 = DIRECTION ( 'NONE',  ( 3.491481338843133355E-15, -1.226656096638776648E-16, 1.000000000000000000 ) ) ;
#81 = EDGE_CURVE ( 'NONE', #110, #110, #168, .T. ) ;
#82 = CARTESIAN_POINT ( 'NONE',  ( 7.681258945454893382E-14, 3.749399456654636904E-32, 22.00000000000000000 ) ) ;
#83 = DIRECTION ( 'NONE',  ( -3.491481338843133355E-15, 1.224646799147353207E-16, -1.000000000000000000 ) ) ;
#84 = ADVANCED_FACE ( 'NONE', ( #218 ), #144, .T. ) ;
#85 = DATE_TIME_ROLE ( 'classification_date' ) ;
#86 = DATE_TIME_ROLE ( 'creation_date' ) ;
#87 = PERSON_AND_ORGANIZATION ( #64, #5 ) ;
#88 = ORIENTED_EDGE ( 'NONE', *, *, #131, .T. ) ;
#89 =( LENGTH_UNIT ( ) NAMED_UNIT ( * ) SI_UNIT ( .MILLI., .METRE. ) );
#90 = COORDINATED_UNIVERSAL_TIME_OFFSET ( 1, 0, .AHEAD. ) ;
#91 = EDGE_LOOP ( 'NONE', ( #122 ) ) ;
#92 = CALENDAR_DATE ( 2021, 16, 11 ) ;
#93 = EDGE_CURVE ( 'NONE', #217, #217, #40, .T. ) ;
#94 = EDGE_LOOP ( 'NONE', ( #56 ) ) ;
#95 = PRODUCT_DEFINITION_FORMATION_WITH_SPECIFIED_SOURCE ( 'ANY', '', #21, .NOT_KNOWN. ) ;
#96 = DIRECTION ( 'NONE',  ( 0.0000000000000000000, 1.000000000000000000, 0.0000000000000000000 ) ) ;
#97 = DIRECTION ( 'NONE',  ( -4.237045877651918877E-31, -1.000000000000000000, -1.246832498358330099E-16 ) ) ;
#98 = DIRECTION ( 'NONE',  ( -3.491481338843133355E-15, 1.224646799147353207E-16, -1.000000000000000000 ) ) ;
#99 = CIRCLE ( 'NONE', #223, 4.500000000000000888 ) ;
#100 = CARTESIAN_POINT ( 'NONE',  ( 7.681258945454893382E-14, -2.694222958124176809E-15, 22.00000000000000000 ) ) ;
#101 = CC_DESIGN_SECURITY_CLASSIFICATION ( #219, ( #95 ) ) ;
#102 = CARTESIAN_POINT ( 'NONE',  ( 7.681258945454893382E-14, 3.749399456654636904E-32, 22.00000000000000000 ) ) ;
#103 = MECHANICAL_CONTEXT ( 'NONE', #28, 'mechanical' ) ;
#104 = CLOSED_SHELL ( 'NONE', ( #119, #84, #181, #185 ) ) ;
#105 = PLANE ( 'NONE',  #45 ) ;
#106 = APPROVAL_STATUS ( 'not_yet_approved' ) ;
#107 = EDGE_LOOP ( 'NONE', ( #109 ) ) ;
#108 = DIRECTION ( 'NONE',  ( 0.0000000000000000000, 0.0000000000000000000, 1.000000000000000000 ) ) ;
#109 = ORIENTED_EDGE ( 'NONE', *, *, #27, .F. ) ;
#110 = VERTEX_POINT ( 'NONE', #182 ) ;
#111 = APPROVAL ( #106, 'UNSPECIFIED' ) ;
#112 = CARTESIAN_POINT ( 'NONE',  ( 2.496409157272839907E-13, -8.756224613903572559E-15, 71.49999999999998579 ) ) ;
#113 = DIRECTION ( 'NONE',  ( 4.275831445896958607E-31, 1.000000000000000000, 1.224646799147353207E-16 ) ) ;
#114 =( GEOMETRIC_REPRESENTATION_CONTEXT ( 3 ) GLOBAL_UNCERTAINTY_ASSIGNED_CONTEXT ( ( #129 ) ) GLOBAL_UNIT_ASSIGNED_CONTEXT ( ( #89, #154, #208 ) ) REPRESENTATION_CONTEXT ( 'NONE', 'WORKASPACE' ) );
#115 = CARTESIAN_POINT ( 'NONE',  ( 2.513866563967056016E-13, -8.817456953860941711E-15, 72.00000000000000000 ) ) ;
#116 = DATE_AND_TIME ( #49, #207 ) ;
#117 = CALENDAR_DATE ( 2021, 16, 11 ) ;
#118 = PERSON_AND_ORGANIZATION ( #64, #5 ) ;
#119 = ADVANCED_FACE ( 'NONE', ( #151, #48 ), #42, .T. ) ;
#120 = PERSON_AND_ORGANIZATION ( #64, #5 ) ;
#121 = CARTESIAN_POINT ( 'NONE',  ( 2.513866563967056016E-13, 3.374459510989167028E-32, 72.00000000000000000 ) ) ;
#122 = ORIENTED_EDGE ( 'NONE', *, *, #203, .F. ) ;
#123 = PRODUCT_RELATED_PRODUCT_CATEGORY ( 'detail', '', ( #21 ) ) ;
#124 = AXIS2_PLACEMENT_3D ( 'NONE', #30, #166, #69 ) ;
#125 = EDGE_LOOP ( 'NONE', ( #191 ) ) ;
#126 = VERTEX_POINT ( 'NONE', #26 ) ;
#127 = CC_DESIGN_PERSON_AND_ORGANIZATION_ASSIGNMENT ( #72, #138, ( #95 ) ) ;
#128 = AXIS2_PLACEMENT_3D ( 'NONE', #202, #149, #97 ) ;
#129 = UNCERTAINTY_MEASURE_WITH_UNIT (LENGTH_MEASURE( 1.000000000000000082E-05 ), #89, 'distance_accuracy_value', 'NONE');
#130 = FACE_OUTER_BOUND ( 'NONE', #35, .T. ) ;
#131 = EDGE_CURVE ( 'NONE', #126, #126, #99, .T. ) ;
#132 = AXIS2_PLACEMENT_3D ( 'NONE', #112, #134, #205 ) ;
#133 = DIRECTION ( 'NONE',  ( -4.275831445896958607E-31, -1.000000000000000000, -1.224646799147353207E-16 ) ) ;
#134 = DIRECTION ( 'NONE',  ( -3.491481338843133355E-15, 1.224646799147353207E-16, -1.000000000000000000 ) ) ;
#135 = AXIS2_PLACEMENT_3D ( 'NONE', #115, #98, #33 ) ;
#136 = COORDINATED_UNIVERSAL_TIME_OFFSET ( 1, 0, .AHEAD. ) ;
#137 = COORDINATED_UNIVERSAL_TIME_OFFSET ( 1, 0, .AHEAD. ) ;
#138 = PERSON_AND_ORGANIZATION_ROLE ( 'design_supplier' ) ;
#139 = EDGE_LOOP ( 'NONE', ( #7 ) ) ;
#140 = APPROVAL_ROLE ( '' ) ;
#141 = EDGE_CURVE ( 'NONE', #201, #201, #195, .T. ) ;
#142 = FACE_OUTER_BOUND ( 'NONE', #76, .T. ) ;
#143 = CIRCLE ( 'NONE', #75, 4.800000000000001599 ) ;
#144 = PLANE ( 'NONE',  #79 ) ;
#145 = LOCAL_TIME ( 16, 44, 54.00000000000000000, #165 ) ;
#146 = AXIS2_PLACEMENT_3D ( 'NONE', #100, #77, #172 ) ;
#147 = AXIS2_PLACEMENT_3D ( 'NONE', #38, #108, #178 ) ;
#148 = DIRECTION ( 'NONE',  ( -4.237045877651918877E-31, -1.000000000000000000, -1.246832498358330099E-16 ) ) ;
#149 = DIRECTION ( 'NONE',  ( 3.491481338843133355E-15, -1.226656096638776648E-16, 1.000000000000000000 ) ) ;
#150 = APPROVAL ( #213, 'UNSPECIFIED' ) ;
#151 = FACE_OUTER_BOUND ( 'NONE', #197, .T. ) ;
#152 = APPROVAL_PERSON_ORGANIZATION ( #55, #150, #140 ) ;
#153 = CARTESIAN_POINT ( 'NONE',  ( 7.681258945454893382E-14, 4.999999999999992006, 22.00000000000000000 ) ) ;
#154 =( NAMED_UNIT ( * ) PLANE_ANGLE_UNIT ( ) SI_UNIT ( $, .RADIAN. ) );
#155 = PERSON_AND_ORGANIZATION_ROLE ( 'creator' ) ;
#156 = ORIENTED_EDGE ( 'NONE', *, *, #93, .F. ) ;
#157 = APPROVAL_DATE_TIME ( #174, #44 ) ;
#158 = CONICAL_SURFACE ( 'NONE', #128, 5.000000000000000000, 0.7853981633974452814 ) ;
#159 = EDGE_LOOP ( 'NONE', ( #88 ) ) ;
#160 = CALENDAR_DATE ( 2021, 16, 11 ) ;
#161 = EDGE_LOOP ( 'NONE', ( #10 ) ) ;
#162 = SHAPE_DEFINITION_REPRESENTATION ( #29, #60 ) ;
#163 = LOCAL_TIME ( 16, 44, 54.00000000000000000, #137 ) ;
#164 = ADVANCED_FACE ( 'NONE', ( #220 ), #186, .F. ) ;
#165 = COORDINATED_UNIVERSAL_TIME_OFFSET ( 1, 0, .AHEAD. ) ;
#166 = DIRECTION ( 'NONE',  ( -3.491481338843133355E-15, 1.224646799147353207E-16, -1.000000000000000000 ) ) ;
#167 = FACE_OUTER_BOUND ( 'NONE', #74, .T. ) ;
#168 = CIRCLE ( 'NONE', #146, 4.999999999999994671 ) ;
#169 = DIRECTION ( 'NONE',  ( -4.275831445896958607E-31, -1.000000000000000000, -1.224646799147353207E-16 ) ) ;
#170 = AXIS2_PLACEMENT_3D ( 'NONE', #62, #68, #183 ) ;
#171 = CC_DESIGN_PERSON_AND_ORGANIZATION_ASSIGNMENT ( #6, #3, ( #210 ) ) ;
#172 = DIRECTION ( 'NONE',  ( 0.0000000000000000000, 1.000000000000000000, 0.0000000000000000000 ) ) ;
#173 = DIRECTION ( 'NONE',  ( -4.275831445896958607E-31, -1.000000000000000000, -1.224646799147353207E-16 ) ) ;
#174 = DATE_AND_TIME ( #117, #200 ) ;
#175 = APPROVAL_PERSON_ORGANIZATION ( #120, #111, #36 ) ;
#176 = APPROVAL_STATUS ( 'not_yet_approved' ) ;
#177 = APPROVAL_DATE_TIME ( #34, #111 ) ;
#178 = DIRECTION ( 'NONE',  ( 1.000000000000000000, 0.0000000000000000000, 0.0000000000000000000 ) ) ;
#179 = CC_DESIGN_PERSON_AND_ORGANIZATION_ASSIGNMENT ( #87, #155, ( #95 ) ) ;
#180 = EDGE_LOOP ( 'NONE', ( #37 ) ) ;
#181 = ADVANCED_FACE ( 'NONE', ( #23, #130 ), #158, .T. ) ;
#182 = CARTESIAN_POINT ( 'NONE',  ( 7.681258945454893382E-14, 4.999999999999992006, 22.00000000000000000 ) ) ;
#183 = DIRECTION ( 'NONE',  ( 4.275831445896959482E-31, 1.000000000000000000, 1.224646799147353207E-16 ) ) ;
#184 = CARTESIAN_POINT ( 'NONE',  ( -4.111532995768751017E-30, -4.800000000000001599, -1.177589852773225818E-15 ) ) ;
#185 = ADVANCED_FACE ( 'NONE', ( #221 ), #222, .F. ) ;
#186 = PLANE ( 'NONE',  #199 ) ;
#187 = AXIS2_PLACEMENT_3D ( 'NONE', #11, #83, #96 ) ;
#188 = CC_DESIGN_APPROVAL ( #44, ( #210 ) ) ;
#189 = CALENDAR_DATE ( 2021, 16, 11 ) ;
#190 = APPLICATION_CONTEXT ( 'configuration controlled 3d designs of mechanical parts and assemblies' ) ;
#191 = ORIENTED_EDGE ( 'NONE', *, *, #81, .T. ) ;
#192 = ADVANCED_FACE ( 'NONE', ( #167, #204 ), #31, .T. ) ;
#193 = VERTEX_POINT ( 'NONE', #153 ) ;
#194 = DIRECTION ( 'NONE',  ( -3.491481338843133355E-15, 1.224646799147353207E-16, -1.000000000000000000 ) ) ;
#195 = CIRCLE ( 'NONE', #206, 5.000000000000000000 ) ;
#196 = APPROVAL_PERSON_ORGANIZATION ( #118, #44, #71 ) ;
#197 = EDGE_LOOP ( 'NONE', ( #22 ) ) ;
#198 = VERTEX_POINT ( 'NONE', #184 ) ;
#199 = AXIS2_PLACEMENT_3D ( 'NONE', #82, #66, #173 ) ;
#200 = LOCAL_TIME ( 16, 44, 54.00000000000000000, #90 ) ;
#201 = VERTEX_POINT ( 'NONE', #17 ) ;
#202 = CARTESIAN_POINT ( 'NONE',  ( 6.982962677686246989E-16, -2.453312193277549166E-17, 0.1999999999999994282 ) ) ;
#203 = EDGE_CURVE ( 'NONE', #193, #193, #61, .T. ) ;
#204 = FACE_BOUND ( 'NONE', #159, .T. ) ;
#205 = DIRECTION ( 'NONE',  ( 0.0000000000000000000, 1.000000000000000000, 0.0000000000000000000 ) ) ;
#206 = AXIS2_PLACEMENT_3D ( 'NONE', #78, #80, #148 ) ;
#207 = LOCAL_TIME ( 16, 44, 54.00000000000000000, #136 ) ;
#208 =( NAMED_UNIT ( * ) SI_UNIT ( $, .STERADIAN. ) SOLID_ANGLE_UNIT ( ) );
#209 = PERSON_AND_ORGANIZATION ( #64, #5 ) ;
#210 = PRODUCT_DEFINITION ( 'UNKNOWN', '', #95, #63 ) ;
#211 = CARTESIAN_POINT ( 'NONE',  ( -2.055766497884375509E-30, 4.562602451484483923E-32, -5.887949263866129092E-16 ) ) ;
#212 = ORIENTED_EDGE ( 'NONE', *, *, #81, .F. ) ;
#213 = APPROVAL_STATUS ( 'not_yet_approved' ) ;
#214 = ADVANCED_FACE ( 'NONE', ( #142, #16 ), #46, .T. ) ;
#215 = DATE_AND_TIME ( #92, #145 ) ;
#216 = MANIFOLD_SOLID_BREP ( 'Corps-Déplacer/Copier1[2]', #104 ) ;
#217 = VERTEX_POINT ( 'NONE', #59 ) ;
#218 = FACE_OUTER_BOUND ( 'NONE', #91, .T. ) ;
#219 = SECURITY_CLASSIFICATION ( '', '', #20 ) ;
#220 = FACE_OUTER_BOUND ( 'NONE', #125, .T. ) ;
#221 = FACE_OUTER_BOUND ( 'NONE', #107, .T. ) ;
#222 = PLANE ( 'NONE',  #4 ) ;
#223 = AXIS2_PLACEMENT_3D ( 'NONE', #14, #25, #15 ) ;
ENDSEC;
END-ISO-10303-21;
