ISO-10303-21;
HEADER;
FILE_DESCRIPTION (( 'STEP AP203' ),
    '1' );
FILE_NAME ('49689.step',
    '2021-11-16T15:44:53',
    ( '' ),
    ( '' ),
    'SwSTEP 2.0',
    'SolidWorks 2019',
    '' );
FILE_SCHEMA (( 'CONFIG_CONTROL_DESIGN' ));
ENDSEC;

DATA;
#1 = ORIENTED_EDGE ( 'NONE', *, *, #149, .T. ) ;
#2 = EDGE_LOOP ( 'NONE', ( #154 ) ) ;
#3 = COORDINATED_UNIVERSAL_TIME_OFFSET ( 1, 0, .AHEAD. ) ;
#4 = EDGE_LOOP ( 'NONE', ( #25 ) ) ;
#5 = DIRECTION ( 'NONE',  ( 0.0000000000000000000, 0.0000000000000000000, 1.000000000000000000 ) ) ;
#6 = ADVANCED_FACE ( 'NONE', ( #51, #114 ), #222, .T. ) ;
#7 = DIRECTION ( 'NONE',  ( 0.0000000000000000000, 1.000000000000000000, 0.0000000000000000000 ) ) ;
#8 = AXIS2_PLACEMENT_3D ( 'NONE', #28, #90, #158 ) ;
#9 = EDGE_LOOP ( 'NONE', ( #171 ) ) ;
#10 = DIRECTION ( 'NONE',  ( 1.000000000000000000, 0.0000000000000000000, 0.0000000000000000000 ) ) ;
#11 = CARTESIAN_POINT ( 'NONE',  ( 6.982962677686249947E-16, -2.453312193277550091E-17, 0.1999999999999995115 ) ) ;
#12 = DIRECTION ( 'NONE',  ( -3.491481338843133355E-15, 1.224646799147353207E-16, -1.000000000000000000 ) ) ;
#13 = CIRCLE ( 'NONE', #111, 4.300000000000000711 ) ;
#14 = DIRECTION ( 'NONE',  ( 0.0000000000000000000, 1.000000000000000000, 0.0000000000000000000 ) ) ;
#15 = CARTESIAN_POINT ( 'NONE',  ( 2.339292497024899474E-13, 3.999999999999991562, 67.00000000000000000 ) ) ;
#16 = DIRECTION ( 'NONE',  ( -4.275831445896958607E-31, -1.000000000000000000, -1.224646799147353207E-16 ) ) ;
#17 = CC_DESIGN_APPROVAL ( #169, ( #122 ) ) ;
#18 = PERSON_AND_ORGANIZATION ( #181, #202 ) ;
#19 = DESIGN_CONTEXT ( 'detailed design', #198, 'design' ) ;
#20 = FACE_OUTER_BOUND ( 'NONE', #4, .T. ) ;
#21 = CALENDAR_DATE ( 2021, 16, 11 ) ;
#22 = PERSON_AND_ORGANIZATION ( #181, #202 ) ;
#23 = EDGE_LOOP ( 'NONE', ( #66 ) ) ;
#24 = COORDINATED_UNIVERSAL_TIME_OFFSET ( 1, 0, .AHEAD. ) ;
#25 = ORIENTED_EDGE ( 'NONE', *, *, #149, .F. ) ;
#26 = FACE_OUTER_BOUND ( 'NONE', #23, .T. ) ;
#27 = CC_DESIGN_PERSON_AND_ORGANIZATION_ASSIGNMENT ( #82, #187, ( #74 ) ) ;
#28 = CARTESIAN_POINT ( 'NONE',  ( 0.0000000000000000000, 0.0000000000000000000, 0.0000000000000000000 ) ) ;
#29 = CARTESIAN_POINT ( 'NONE',  ( -3.683248308709505667E-30, -4.300000000000000711, -1.054924243109348129E-15 ) ) ;
#30 = FACE_OUTER_BOUND ( 'NONE', #192, .T. ) ;
#31 = CC_DESIGN_PERSON_AND_ORGANIZATION_ASSIGNMENT ( #22, #52, ( #201 ) ) ;
#32 = DIRECTION ( 'NONE',  ( 3.491481338843133355E-15, -1.224646799147353207E-16, 1.000000000000000000 ) ) ;
#33 =( LENGTH_UNIT ( ) NAMED_UNIT ( * ) SI_UNIT ( .MILLI., .METRE. ) );
#34 = APPROVAL_PERSON_ORGANIZATION ( #54, #116, #57 ) ;
#35 = APPROVAL_DATE_TIME ( #119, #116 ) ;
#36 = CIRCLE ( 'NONE', #128, 4.499999999999994671 ) ;
#37 = CALENDAR_DATE ( 2021, 16, 11 ) ;
#38 = CC_DESIGN_SECURITY_CLASSIFICATION ( #112, ( #74 ) ) ;
#39 = APPROVAL_DATE_TIME ( #104, #143 ) ;
#40 = EDGE_LOOP ( 'NONE', ( #129 ) ) ;
#41 = CIRCLE ( 'NONE', #163, 4.499999999999994671 ) ;
#42 = LOCAL_TIME ( 16, 44, 53.00000000000000000, #211 ) ;
#43 = DIRECTION ( 'NONE',  ( 3.491481338843133355E-15, -1.226656096638776648E-16, 1.000000000000000000 ) ) ;
#44 = DIRECTION ( 'NONE',  ( -3.491481338843133355E-15, 1.224646799147353207E-16, -1.000000000000000000 ) ) ;
#45 = CC_DESIGN_DATE_AND_TIME_ASSIGNMENT ( #152, #67, ( #112 ) ) ;
#46 = DIRECTION ( 'NONE',  ( -4.275831445896958607E-31, -1.000000000000000000, -1.224646799147353207E-16 ) ) ;
#47 = CARTESIAN_POINT ( 'NONE',  ( 2.321835090330683366E-13, -8.143901214329899974E-15, 66.50000000000000000 ) ) ;
#48 = CC_DESIGN_DATE_AND_TIME_ASSIGNMENT ( #69, #213, ( #122 ) ) ;
#49 = CC_DESIGN_PERSON_AND_ORGANIZATION_ASSIGNMENT ( #18, #190, ( #74 ) ) ;
#50 = AXIS2_PLACEMENT_3D ( 'NONE', #138, #214, #76 ) ;
#51 = FACE_OUTER_BOUND ( 'NONE', #118, .T. ) ;
#52 = PERSON_AND_ORGANIZATION_ROLE ( 'design_owner' ) ;
#53 = CARTESIAN_POINT ( 'NONE',  ( 0.0000000000000000000, 0.0000000000000000000, 0.0000000000000000000 ) ) ;
#54 = PERSON_AND_ORGANIZATION ( #181, #202 ) ;
#55 = PERSON_AND_ORGANIZATION ( #181, #202 ) ;
#56 = EDGE_LOOP ( 'NONE', ( #68 ) ) ;
#57 = APPROVAL_ROLE ( '' ) ;
#58 = CARTESIAN_POINT ( 'NONE',  ( 7.681258945454893382E-14, -2.694222958124176809E-15, 22.00000000000000000 ) ) ;
#59 = FACE_OUTER_BOUND ( 'NONE', #9, .T. ) ;
#60 = DIRECTION ( 'NONE',  ( 0.0000000000000000000, 1.000000000000000000, 0.0000000000000000000 ) ) ;
#61 = FACE_OUTER_BOUND ( 'NONE', #135, .T. ) ;
#62 = CARTESIAN_POINT ( 'NONE',  ( 6.982962677686231212E-16, -4.500000000000000000, 0.1999999999999989841 ) ) ;
#63 = CIRCLE ( 'NONE', #141, 3.999999999999999112 ) ;
#64 = ADVANCED_FACE ( 'NONE', ( #20 ), #131, .F. ) ;
#65 = AXIS2_PLACEMENT_3D ( 'NONE', #11, #43, #125 ) ;
#66 = ORIENTED_EDGE ( 'NONE', *, *, #113, .F. ) ;
#67 = DATE_TIME_ROLE ( 'classification_date' ) ;
#68 = ORIENTED_EDGE ( 'NONE', *, *, #186, .T. ) ;
#69 = DATE_AND_TIME ( #88, #148 ) ;
#70 = ORIENTED_EDGE ( 'NONE', *, *, #113, .T. ) ;
#71 = COORDINATED_UNIVERSAL_TIME_OFFSET ( 1, 0, .AHEAD. ) ;
#72 = DIRECTION ( 'NONE',  ( 4.275831445896958607E-31, 1.000000000000000000, 1.224646799147352961E-16 ) ) ;
#73 = CYLINDRICAL_SURFACE ( 'NONE', #8, 4.499999999999993783 ) ;
#74 = PRODUCT_DEFINITION_FORMATION_WITH_SPECIFIED_SOURCE ( 'ANY', '', #201, .NOT_KNOWN. ) ;
#75 = CYLINDRICAL_SURFACE ( 'NONE', #97, 4.499999999999997335 ) ;
#76 = DIRECTION ( 'NONE',  ( -4.279844320860524021E-31, -1.000000000000000000, -1.204669080539449344E-16 ) ) ;
#77 = DIRECTION ( 'NONE',  ( -3.491481338843133355E-15, 1.224646799147353207E-16, -1.000000000000000000 ) ) ;
#78 = AXIS2_PLACEMENT_3D ( 'NONE', #124, #32, #46 ) ;
#79 = ADVANCED_FACE ( 'NONE', ( #199, #59 ), #73, .T. ) ;
#80 = APPROVAL_PERSON_ORGANIZATION ( #120, #169, #133 ) ;
#81 = CC_DESIGN_PERSON_AND_ORGANIZATION_ASSIGNMENT ( #84, #132, ( #112 ) ) ;
#82 = PERSON_AND_ORGANIZATION ( #181, #202 ) ;
#83 = CONICAL_SURFACE ( 'NONE', #50, 4.500000000000000000, 0.7853981633974452814 ) ;
#84 = PERSON_AND_ORGANIZATION ( #181, #202 ) ;
#85 = APPLICATION_PROTOCOL_DEFINITION ( 'international standard', 'config_control_design', 1994, #203 ) ;
#86 = DIRECTION ( 'NONE',  ( -3.491481338843133355E-15, 1.224646799147353207E-16, -1.000000000000000000 ) ) ;
#87 = EDGE_CURVE ( 'NONE', #91, #91, #13, .T. ) ;
#88 = CALENDAR_DATE ( 2021, 16, 11 ) ;
#89 = FACE_OUTER_BOUND ( 'NONE', #2, .T. ) ;
#90 = DIRECTION ( 'NONE',  ( -3.491481338843133355E-15, 1.224646799147353207E-16, -1.000000000000000000 ) ) ;
#91 = VERTEX_POINT ( 'NONE', #29 ) ;
#92 = AXIS2_PLACEMENT_3D ( 'NONE', #47, #77, #60 ) ;
#93 =( GEOMETRIC_REPRESENTATION_CONTEXT ( 3 ) GLOBAL_UNCERTAINTY_ASSIGNED_CONTEXT ( ( #168 ) ) GLOBAL_UNIT_ASSIGNED_CONTEXT ( ( #33, #162, #146 ) ) REPRESENTATION_CONTEXT ( 'NONE', 'WORKASPACE' ) );
#94 = DIRECTION ( 'NONE',  ( 3.491481338843133355E-15, -1.224646799147353207E-16, 1.000000000000000000 ) ) ;
#95 = FACE_OUTER_BOUND ( 'NONE', #56, .T. ) ;
#96 = AXIS2_PLACEMENT_3D ( 'NONE', #195, #193, #16 ) ;
#97 = AXIS2_PLACEMENT_3D ( 'NONE', #127, #44, #72 ) ;
#98 = LOCAL_TIME ( 16, 44, 53.00000000000000000, #24 ) ;
#99 = MECHANICAL_CONTEXT ( 'NONE', #203, 'mechanical' ) ;
#100 = CC_DESIGN_APPROVAL ( #116, ( #74 ) ) ;
#101 = COORDINATED_UNIVERSAL_TIME_OFFSET ( 1, 0, .AHEAD. ) ;
#102 = ORIENTED_EDGE ( 'NONE', *, *, #87, .F. ) ;
#103 = APPROVAL_DATE_TIME ( #153, #169 ) ;
#104 = DATE_AND_TIME ( #189, #126 ) ;
#105 = DIRECTION ( 'NONE',  ( 4.275831445896958607E-31, 1.000000000000000000, 1.224646799147353207E-16 ) ) ;
#106 = CARTESIAN_POINT ( 'NONE',  ( -1.841624154354752834E-30, 3.810259861773943051E-32, -5.274621215546740645E-16 ) ) ;
#107 = DIRECTION ( 'NONE',  ( -4.282846870592447371E-31, -1.000000000000000000, -1.226656096638776648E-16 ) ) ;
#108 = VERTEX_POINT ( 'NONE', #196 ) ;
#109 = DIRECTION ( 'NONE',  ( 0.0000000000000000000, 1.000000000000000000, 0.0000000000000000000 ) ) ;
#110 = CARTESIAN_POINT ( 'NONE',  ( 7.681258945454893382E-14, 4.499999999999992006, 22.00000000000000000 ) ) ;
#111 = AXIS2_PLACEMENT_3D ( 'NONE', #106, #174, #107 ) ;
#112 = SECURITY_CLASSIFICATION ( '', '', #151 ) ;
#113 = EDGE_CURVE ( 'NONE', #108, #108, #36, .T. ) ;
#114 = FACE_BOUND ( 'NONE', #150, .T. ) ;
#115 = APPROVAL_STATUS ( 'not_yet_approved' ) ;
#116 = APPROVAL ( #208, 'UNSPECIFIED' ) ;
#117 = AXIS2_PLACEMENT_3D ( 'NONE', #178, #175, #105 ) ;
#118 = EDGE_LOOP ( 'NONE', ( #205 ) ) ;
#119 = DATE_AND_TIME ( #21, #42 ) ;
#120 = PERSON_AND_ORGANIZATION ( #181, #202 ) ;
#121 = PLANE ( 'NONE',  #96 ) ;
#122 = PRODUCT_DEFINITION ( 'UNKNOWN', '', #74, #19 ) ;
#123 = DIRECTION ( 'NONE',  ( 0.0000000000000000000, 1.000000000000000000, 0.0000000000000000000 ) ) ;
#124 = CARTESIAN_POINT ( 'NONE',  ( -8.551682484132188564E-31, 2.999526437390905467E-32, -2.449299209763412751E-16 ) ) ;
#125 = DIRECTION ( 'NONE',  ( -4.279844320860524021E-31, -1.000000000000000000, -1.204669080539449344E-16 ) ) ;
#126 = LOCAL_TIME ( 16, 44, 53.00000000000000000, #101 ) ;
#127 = CARTESIAN_POINT ( 'NONE',  ( 0.0000000000000000000, 0.0000000000000000000, 0.0000000000000000000 ) ) ;
#128 = AXIS2_PLACEMENT_3D ( 'NONE', #177, #12, #123 ) ;
#129 = ORIENTED_EDGE ( 'NONE', *, *, #87, .T. ) ;
#130 = APPROVAL_ROLE ( '' ) ;
#131 = PLANE ( 'NONE',  #117 ) ;
#132 = PERSON_AND_ORGANIZATION_ROLE ( 'classification_officer' ) ;
#133 = APPROVAL_ROLE ( '' ) ;
#134 = MANIFOLD_SOLID_BREP ( 'Corps-Déplacer/Copier1[2]', #165 ) ;
#135 = EDGE_LOOP ( 'NONE', ( #212 ) ) ;
#136 = CALENDAR_DATE ( 2021, 16, 11 ) ;
#137 = CC_DESIGN_PERSON_AND_ORGANIZATION_ASSIGNMENT ( #209, #166, ( #122 ) ) ;
#138 = CARTESIAN_POINT ( 'NONE',  ( 6.982962677686249947E-16, -2.453312193277550091E-17, 0.1999999999999995115 ) ) ;
#139 = ADVANCED_BREP_SHAPE_REPRESENTATION ( '49689', ( #216, #134, #167 ), #93 ) ;
#140 = FACE_OUTER_BOUND ( 'NONE', #188, .T. ) ;
#141 = AXIS2_PLACEMENT_3D ( 'NONE', #161, #176, #14 ) ;
#142 = PLANE ( 'NONE',  #78 ) ;
#143 = APPROVAL ( #185, 'UNSPECIFIED' ) ;
#144 = VERTEX_POINT ( 'NONE', #220 ) ;
#145 = CC_DESIGN_APPROVAL ( #143, ( #112 ) ) ;
#146 =( NAMED_UNIT ( * ) SI_UNIT ( $, .STERADIAN. ) SOLID_ANGLE_UNIT ( ) );
#147 = CIRCLE ( 'NONE', #65, 4.500000000000000000 ) ;
#148 = LOCAL_TIME ( 16, 44, 53.00000000000000000, #3 ) ;
#149 = EDGE_CURVE ( 'NONE', #160, #160, #63, .T. ) ;
#150 = EDGE_LOOP ( 'NONE', ( #1 ) ) ;
#151 = SECURITY_CLASSIFICATION_LEVEL ( 'unclassified' ) ;
#152 = DATE_AND_TIME ( #37, #98 ) ;
#153 = DATE_AND_TIME ( #136, #217 ) ;
#154 = ORIENTED_EDGE ( 'NONE', *, *, #200, .F. ) ;
#155 = SHAPE_DEFINITION_REPRESENTATION ( #191, #139 ) ;
#156 = ADVANCED_FACE ( 'NONE', ( #61, #30 ), #75, .T. ) ;
#157 = FACE_BOUND ( 'NONE', #40, .T. ) ;
#158 = DIRECTION ( 'NONE',  ( 4.275831445896957731E-31, 1.000000000000000000, 1.224646799147353207E-16 ) ) ;
#159 = DIRECTION ( 'NONE',  ( -4.275831445896958607E-31, -1.000000000000000000, -1.224646799147353207E-16 ) ) ;
#160 = VERTEX_POINT ( 'NONE', #15 ) ;
#161 = CARTESIAN_POINT ( 'NONE',  ( 2.339292497024899474E-13, -8.205133554287267548E-15, 67.00000000000000000 ) ) ;
#162 =( NAMED_UNIT ( * ) PLANE_ANGLE_UNIT ( ) SI_UNIT ( $, .RADIAN. ) );
#163 = AXIS2_PLACEMENT_3D ( 'NONE', #58, #194, #109 ) ;
#164 = ADVANCED_FACE ( 'NONE', ( #26 ), #218, .T. ) ;
#165 = CLOSED_SHELL ( 'NONE', ( #79, #164, #173, #179 ) ) ;
#166 = PERSON_AND_ORGANIZATION_ROLE ( 'creator' ) ;
#167 = AXIS2_PLACEMENT_3D ( 'NONE', #53, #5, #10 ) ;
#168 = UNCERTAINTY_MEASURE_WITH_UNIT (LENGTH_MEASURE( 1.000000000000000082E-05 ), #33, 'distance_accuracy_value', 'NONE');
#169 = APPROVAL ( #115, 'UNSPECIFIED' ) ;
#170 = APPLICATION_PROTOCOL_DEFINITION ( 'international standard', 'config_control_design', 1994, #198 ) ;
#171 = ORIENTED_EDGE ( 'NONE', *, *, #200, .T. ) ;
#172 = EDGE_LOOP ( 'NONE', ( #70 ) ) ;
#173 = ADVANCED_FACE ( 'NONE', ( #157, #89 ), #83, .T. ) ;
#174 = DIRECTION ( 'NONE',  ( 3.491481338843133355E-15, -1.226656096638776648E-16, 1.000000000000000000 ) ) ;
#175 = DIRECTION ( 'NONE',  ( -3.491481338843133355E-15, 1.224646799147353207E-16, -1.000000000000000000 ) ) ;
#176 = DIRECTION ( 'NONE',  ( -3.491481338843133355E-15, 1.224646799147353207E-16, -1.000000000000000000 ) ) ;
#177 = CARTESIAN_POINT ( 'NONE',  ( 7.681258945454893382E-14, -2.694222958124176809E-15, 22.00000000000000000 ) ) ;
#178 = CARTESIAN_POINT ( 'NONE',  ( 2.339292497024899474E-13, 2.999519565323702626E-32, 67.00000000000000000 ) ) ;
#179 = ADVANCED_FACE ( 'NONE', ( #140 ), #142, .F. ) ;
#180 = AXIS2_PLACEMENT_3D ( 'NONE', #184, #86, #7 ) ;
#181 = PERSON ( 'UNSPECIFIED', 'UNSPECIFIED', 'UNSPECIFIED', ('UNSPECIFIED'), ('UNSPECIFIED'), ('UNSPECIFIED') ) ;
#182 = EDGE_CURVE ( 'NONE', #144, #144, #204, .T. ) ;
#183 = AXIS2_PLACEMENT_3D ( 'NONE', #219, #94, #159 ) ;
#184 = CARTESIAN_POINT ( 'NONE',  ( 2.339292497024899474E-13, -8.205133554287267548E-15, 67.00000000000000000 ) ) ;
#185 = APPROVAL_STATUS ( 'not_yet_approved' ) ;
#186 = EDGE_CURVE ( 'NONE', #221, #221, #41, .T. ) ;
#187 = PERSON_AND_ORGANIZATION_ROLE ( 'design_supplier' ) ;
#188 = EDGE_LOOP ( 'NONE', ( #102 ) ) ;
#189 = CALENDAR_DATE ( 2021, 16, 11 ) ;
#190 = PERSON_AND_ORGANIZATION_ROLE ( 'creator' ) ;
#191 = PRODUCT_DEFINITION_SHAPE ( 'NONE', 'NONE',  #122 ) ;
#192 = EDGE_LOOP ( 'NONE', ( #207 ) ) ;
#193 = DIRECTION ( 'NONE',  ( 3.491481338843133355E-15, -1.224646799147353207E-16, 1.000000000000000000 ) ) ;
#194 = DIRECTION ( 'NONE',  ( -3.491481338843133355E-15, 1.224646799147353207E-16, -1.000000000000000000 ) ) ;
#195 = CARTESIAN_POINT ( 'NONE',  ( 7.681258945454893382E-14, 3.374459510989171954E-32, 22.00000000000000000 ) ) ;
#196 = CARTESIAN_POINT ( 'NONE',  ( 7.681258945454893382E-14, 4.499999999999992006, 22.00000000000000000 ) ) ;
#197 = APPROVAL_PERSON_ORGANIZATION ( #55, #143, #130 ) ;
#198 = APPLICATION_CONTEXT ( 'configuration controlled 3d designs of mechanical parts and assemblies' ) ;
#199 = FACE_OUTER_BOUND ( 'NONE', #172, .T. ) ;
#200 = EDGE_CURVE ( 'NONE', #223, #223, #147, .T. ) ;
#201 = PRODUCT ( '49689', '49689', '', ( #99 ) ) ;
#202 = ORGANIZATION ( 'UNSPECIFIED', 'UNSPECIFIED', '' ) ;
#203 = APPLICATION_CONTEXT ( 'configuration controlled 3d designs of mechanical parts and assemblies' ) ;
#204 = CIRCLE ( 'NONE', #92, 4.500000000000000000 ) ;
#205 = ORIENTED_EDGE ( 'NONE', *, *, #182, .F. ) ;
#206 = PRODUCT_RELATED_PRODUCT_CATEGORY ( 'detail', '', ( #201 ) ) ;
#207 = ORIENTED_EDGE ( 'NONE', *, *, #182, .T. ) ;
#208 = APPROVAL_STATUS ( 'not_yet_approved' ) ;
#209 = PERSON_AND_ORGANIZATION ( #181, #202 ) ;
#210 = ADVANCED_FACE ( 'NONE', ( #95 ), #121, .F. ) ;
#211 = COORDINATED_UNIVERSAL_TIME_OFFSET ( 1, 0, .AHEAD. ) ;
#212 = ORIENTED_EDGE ( 'NONE', *, *, #186, .F. ) ;
#213 = DATE_TIME_ROLE ( 'creation_date' ) ;
#214 = DIRECTION ( 'NONE',  ( 3.491481338843133355E-15, -1.226656096638776648E-16, 1.000000000000000000 ) ) ;
#215 = CLOSED_SHELL ( 'NONE', ( #210, #156, #6, #64 ) ) ;
#216 = MANIFOLD_SOLID_BREP ( 'Corps-Déplacer/Copier1[1]', #215 ) ;
#217 = LOCAL_TIME ( 16, 44, 53.00000000000000000, #71 ) ;
#218 = PLANE ( 'NONE',  #183 ) ;
#219 = CARTESIAN_POINT ( 'NONE',  ( 7.681258945454893382E-14, 3.374459510989171954E-32, 22.00000000000000000 ) ) ;
#220 = CARTESIAN_POINT ( 'NONE',  ( 2.321835090330683366E-13, 4.499999999999992006, 66.50000000000000000 ) ) ;
#221 = VERTEX_POINT ( 'NONE', #110 ) ;
#222 = CONICAL_SURFACE ( 'NONE', #180, 3.999999999999999112, 0.7853981633974482790 ) ;
#223 = VERTEX_POINT ( 'NONE', #62 ) ;
ENDSEC;
END-ISO-10303-21;
